ISO-10303-21;
HEADER;
FILE_DESCRIPTION (( 'STEP AP214' ),
    '1' );
FILE_NAME ('690DDR500.step',
    '2017-07-10T05:45:57',
    ( 'install' ),
    ( '' ),
    'SwSTEP 2.0',
    'SolidWorks 2015',
    '' );
FILE_SCHEMA (( 'AUTOMOTIVE_DESIGN' ));
ENDSEC;

DATA;
#1 = CARTESIAN_POINT ( 'NONE',  ( 0.0000000000000000000, 0.0000000000000000000, 0.0000000000000000000 ) ) ;
#2 = ORIENTED_EDGE ( 'NONE', *, *, #44, .F. ) ;
#3 = AXIS2_PLACEMENT_3D ( 'NONE', #1, #92, #14 ) ;
#4 = EDGE_CURVE ( 'NONE', #25, #123, #145, .T. ) ;
#5 = FILL_AREA_STYLE_COLOUR ( '', #113 ) ;
#6 =( LENGTH_UNIT ( ) NAMED_UNIT ( * ) SI_UNIT ( .MILLI., .METRE. ) );
#7 = CLOSED_SHELL ( 'NONE', ( #78, #10, #27, #120 ) ) ;
#8 = SURFACE_STYLE_FILL_AREA ( #46 ) ;
#9 = AXIS2_PLACEMENT_3D ( 'NONE', #98, #108, #22 ) ;
#10 = ADVANCED_FACE ( 'NONE', ( #75 ), #112, .T. ) ;
#11 = TOROIDAL_SURFACE ( 'NONE', #59, 268.6000000000000200, 1.000000000000001800 ) ;
#12 = EDGE_CURVE ( 'NONE', #38, #123, #86, .T. ) ;
#13 = DIRECTION ( 'NONE',  ( 1.000000000000000000, 0.0000000000000000000, 0.0000000000000000000 ) ) ;
#14 = DIRECTION ( 'NONE',  ( 1.000000000000000000, 0.0000000000000000000, 0.0000000000000000000 ) ) ;
#15 = TOROIDAL_SURFACE ( 'NONE', #21, 268.6000000000000200, 1.000000000000001800 ) ;
#16 = AXIS2_PLACEMENT_3D ( 'NONE', #138, #96, #19 ) ;
#17 =( LENGTH_UNIT ( ) NAMED_UNIT ( * ) SI_UNIT ( .MILLI., .METRE. ) );
#18 =( NAMED_UNIT ( * ) SI_UNIT ( $, .STERADIAN. ) SOLID_ANGLE_UNIT ( ) );
#19 = DIRECTION ( 'NONE',  ( 1.000000000000000000, 0.0000000000000000000, 0.0000000000000000000 ) ) ;
#20 = CARTESIAN_POINT ( 'NONE',  ( 0.0000000000000000000, 0.0000000000000000000, 0.0000000000000000000 ) ) ;
#21 = AXIS2_PLACEMENT_3D ( 'NONE', #45, #147, #30 ) ;
#22 = DIRECTION ( 'NONE',  ( 1.000000000000000000, 0.0000000000000000000, 0.0000000000000000000 ) ) ;
#23 = CIRCLE ( 'NONE', #3, 269.6000000000000200 ) ;
#24 = EDGE_CURVE ( 'NONE', #25, #117, #23, .T. ) ;
#25 = VERTEX_POINT ( 'NONE', #122 ) ;
#26 = ORIENTED_EDGE ( 'NONE', *, *, #24, .T. ) ;
#27 = ADVANCED_FACE ( 'NONE', ( #142 ), #15, .T. ) ;
#28 = PRODUCT_DEFINITION ( 'UNKNOWN', '', #40, #143 ) ;
#29 = UNCERTAINTY_MEASURE_WITH_UNIT (LENGTH_MEASURE( 1.000000000000000100E-005 ), #6, 'distance_accuracy_value', 'NONE');
#30 = DIRECTION ( 'NONE',  ( 1.000000000000000000, 0.0000000000000000000, 0.0000000000000000000 ) ) ;
#31 = AXIS2_PLACEMENT_3D ( 'NONE', #63, #129, #140 ) ;
#32 = ORIENTED_EDGE ( 'NONE', *, *, #4, .F. ) ;
#33 = EDGE_CURVE ( 'NONE', #123, #38, #111, .T. ) ;
#34 = CIRCLE ( 'NONE', #53, 269.6000000000000200 ) ;
#35 =( NAMED_UNIT ( * ) SI_UNIT ( $, .STERADIAN. ) SOLID_ANGLE_UNIT ( ) );
#36 = APPLICATION_PROTOCOL_DEFINITION ( 'draft international standard', 'automotive_design', 1998, #52 ) ;
#37 = APPLICATION_CONTEXT ( 'automotive_design' ) ;
#38 = VERTEX_POINT ( 'NONE', #81 ) ;
#39 = CARTESIAN_POINT ( 'NONE',  ( -268.6000000000000200, 3.289401302509790900E-014, 0.0000000000000000000 ) ) ;
#40 = PRODUCT_DEFINITION_FORMATION_WITH_SPECIFIED_SOURCE ( 'ANY', '', #158, .NOT_KNOWN. ) ;
#41 = ORIENTED_EDGE ( 'NONE', *, *, #24, .F. ) ;
#42 = ORIENTED_EDGE ( 'NONE', *, *, #12, .F. ) ;
#43 = AXIS2_PLACEMENT_3D ( 'NONE', #39, #76, #107 ) ;
#44 = EDGE_CURVE ( 'NONE', #123, #25, #83, .T. ) ;
#45 = CARTESIAN_POINT ( 'NONE',  ( 0.0000000000000000000, 0.0000000000000000000, 0.0000000000000000000 ) ) ;
#46 = FILL_AREA_STYLE ('',( #115 ) ) ;
#47 = EDGE_LOOP ( 'NONE', ( #157, #90, #65, #42 ) ) ;
#48 = PRODUCT_RELATED_PRODUCT_CATEGORY ( 'part', '', ( #158 ) ) ;
#49 = COLOUR_RGB ( '',0.7254901960784313500, 0.4470588235294117300, 0.3686274509803921800 ) ;
#50 = CARTESIAN_POINT ( 'NONE',  ( -269.6000000000000200, 3.301647770501264400E-014, 0.0000000000000000000 ) ) ;
#51 = DIRECTION ( 'NONE',  ( -0.0000000000000000000, -0.0000000000000000000, 1.000000000000000000 ) ) ;
#52 = APPLICATION_CONTEXT ( 'automotive_design' ) ;
#53 = AXIS2_PLACEMENT_3D ( 'NONE', #114, #51, #127 ) ;
#54 = TOROIDAL_SURFACE ( 'NONE', #99, 268.6000000000000200, 1.000000000000001800 ) ;
#55 = EDGE_CURVE ( 'NONE', #38, #117, #56, .T. ) ;
#56 = CIRCLE ( 'NONE', #43, 1.000000000000000900 ) ;
#57 = CARTESIAN_POINT ( 'NONE',  ( 0.0000000000000000000, 0.0000000000000000000, -1.224646799147355400E-016 ) ) ;
#58 = PRESENTATION_STYLE_ASSIGNMENT (( #139 ) ) ;
#59 = AXIS2_PLACEMENT_3D ( 'NONE', #20, #132, #101 ) ;
#60 = EDGE_LOOP ( 'NONE', ( #70, #154, #130, #93 ) ) ;
#61 = UNCERTAINTY_MEASURE_WITH_UNIT (LENGTH_MEASURE( 1.000000000000000100E-005 ), #17, 'distance_accuracy_value', 'NONE');
#62 = SURFACE_SIDE_STYLE ('',( #88 ) ) ;
#63 = CARTESIAN_POINT ( 'NONE',  ( 268.6000000000000200, 0.0000000000000000000, 0.0000000000000000000 ) ) ;
#64 = ORIENTED_EDGE ( 'NONE', *, *, #55, .T. ) ;
#65 = ORIENTED_EDGE ( 'NONE', *, *, #4, .T. ) ;
#66 = STYLED_ITEM ( 'NONE', ( #133 ), #87 ) ;
#67 = DIRECTION ( 'NONE',  ( -0.0000000000000000000, -0.0000000000000000000, 1.000000000000000000 ) ) ;
#68 = CIRCLE ( 'NONE', #104, 1.000000000000000900 ) ;
#69 = DIRECTION ( 'NONE',  ( 1.000000000000000000, 0.0000000000000000000, 0.0000000000000000000 ) ) ;
#70 = ORIENTED_EDGE ( 'NONE', *, *, #146, .F. ) ;
#71 = DIRECTION ( 'NONE',  ( -0.0000000000000000000, -0.0000000000000000000, 1.000000000000000000 ) ) ;
#72 = CARTESIAN_POINT ( 'NONE',  ( -268.6000000000000200, 3.289401302509790900E-014, 0.0000000000000000000 ) ) ;
#73 = AXIS2_PLACEMENT_3D ( 'NONE', #134, #121, #91 ) ;
#74 =( LENGTH_UNIT ( ) NAMED_UNIT ( * ) SI_UNIT ( .MILLI., .METRE. ) );
#75 = FACE_OUTER_BOUND ( 'NONE', #100, .T. ) ;
#76 = DIRECTION ( 'NONE',  ( 1.224646799147353200E-016, 1.000000000000000000, 0.0000000000000000000 ) ) ;
#77 = PRESENTATION_LAYER_ASSIGNMENT (  '', '', ( #66 ) ) ;
#78 = ADVANCED_FACE ( 'NONE', ( #137 ), #11, .T. ) ;
#79 = CARTESIAN_POINT ( 'NONE',  ( 0.0000000000000000000, 0.0000000000000000000, 0.0000000000000000000 ) ) ;
#80 = PRODUCT_DEFINITION_SHAPE ( 'NONE', 'NONE',  #28 ) ;
#81 = CARTESIAN_POINT ( 'NONE',  ( -267.6000000000000200, 3.277154834518317400E-014, -1.224646799147356400E-016 ) ) ;
#82 = MECHANICAL_DESIGN_GEOMETRIC_PRESENTATION_REPRESENTATION (  '', ( #66 ), #89 ) ;
#83 = CIRCLE ( 'NONE', #31, 1.000000000000001800 ) ;
#84 = DIRECTION ( 'NONE',  ( -1.000000000000000000, 1.224646799147349500E-016, 0.0000000000000000000 ) ) ;
#85 =( NAMED_UNIT ( * ) SI_UNIT ( $, .STERADIAN. ) SOLID_ANGLE_UNIT ( ) );
#86 = CIRCLE ( 'NONE', #144, 267.6000000000000200 ) ;
#87 = MANIFOLD_SOLID_BREP ( 'Rotation1', #7 ) ;
#88 = SURFACE_STYLE_FILL_AREA ( #128 ) ;
#89 =( GEOMETRIC_REPRESENTATION_CONTEXT ( 3 ) GLOBAL_UNCERTAINTY_ASSIGNED_CONTEXT ( ( #61 ) ) GLOBAL_UNIT_ASSIGNED_CONTEXT ( ( #17, #105, #35 ) ) REPRESENTATION_CONTEXT ( 'NONE', 'WORKASPACE' ) );
#90 = ORIENTED_EDGE ( 'NONE', *, *, #146, .T. ) ;
#91 = DIRECTION ( 'NONE',  ( 0.0000000000000000000, 0.0000000000000000000, -1.000000000000000000 ) ) ;
#92 = DIRECTION ( 'NONE',  ( -0.0000000000000000000, -0.0000000000000000000, 1.000000000000000000 ) ) ;
#93 = ORIENTED_EDGE ( 'NONE', *, *, #44, .T. ) ;
#94 = SURFACE_STYLE_USAGE ( .BOTH. , #119 ) ;
#95 =( NAMED_UNIT ( * ) PLANE_ANGLE_UNIT ( ) SI_UNIT ( $, .RADIAN. ) );
#96 = DIRECTION ( 'NONE',  ( 0.0000000000000000000, 0.0000000000000000000, 1.000000000000000000 ) ) ;
#97 = ORIENTED_EDGE ( 'NONE', *, *, #33, .T. ) ;
#98 = CARTESIAN_POINT ( 'NONE',  ( 0.0000000000000000000, 0.0000000000000000000, -1.224646799147355400E-016 ) ) ;
#99 = AXIS2_PLACEMENT_3D ( 'NONE', #126, #71, #150 ) ;
#100 = EDGE_LOOP ( 'NONE', ( #32, #26, #103, #148 ) ) ;
#101 = DIRECTION ( 'NONE',  ( 1.000000000000000000, 0.0000000000000000000, 0.0000000000000000000 ) ) ;
#102 = CARTESIAN_POINT ( 'NONE',  ( 267.6000000000000200, 0.0000000000000000000, -1.224646799147356400E-016 ) ) ;
#103 = ORIENTED_EDGE ( 'NONE', *, *, #155, .T. ) ;
#104 = AXIS2_PLACEMENT_3D ( 'NONE', #72, #151, #84 ) ;
#105 =( NAMED_UNIT ( * ) PLANE_ANGLE_UNIT ( ) SI_UNIT ( $, .RADIAN. ) );
#106 = PRODUCT_CONTEXT ( 'NONE', #52, 'mechanical' ) ;
#107 = DIRECTION ( 'NONE',  ( -1.000000000000000000, 1.224646799147349500E-016, 0.0000000000000000000 ) ) ;
#108 = DIRECTION ( 'NONE',  ( -0.0000000000000000000, -0.0000000000000000000, 1.000000000000000000 ) ) ;
#109 = FACE_OUTER_BOUND ( 'NONE', #60, .T. ) ;
#110 =( GEOMETRIC_REPRESENTATION_CONTEXT ( 3 ) GLOBAL_UNCERTAINTY_ASSIGNED_CONTEXT ( ( #29 ) ) GLOBAL_UNIT_ASSIGNED_CONTEXT ( ( #6, #95, #18 ) ) REPRESENTATION_CONTEXT ( 'NONE', 'WORKASPACE' ) );
#111 = CIRCLE ( 'NONE', #9, 267.6000000000000200 ) ;
#112 = TOROIDAL_SURFACE ( 'NONE', #153, 268.6000000000000200, 1.000000000000001800 ) ;
#113 = COLOUR_RGB ( '',0.7254901960784313500, 0.4470588235294117300, 0.3686274509803921800 ) ;
#114 = CARTESIAN_POINT ( 'NONE',  ( 0.0000000000000000000, 0.0000000000000000000, 0.0000000000000000000 ) ) ;
#115 = FILL_AREA_STYLE_COLOUR ( '', #49 ) ;
#116 = APPLICATION_PROTOCOL_DEFINITION ( 'draft international standard', 'automotive_design', 1998, #37 ) ;
#117 = VERTEX_POINT ( 'NONE', #50 ) ;
#118 = EDGE_LOOP ( 'NONE', ( #41, #2, #97, #64 ) ) ;
#119 = SURFACE_SIDE_STYLE ('',( #8 ) ) ;
#120 = ADVANCED_FACE ( 'NONE', ( #109 ), #54, .T. ) ;
#121 = DIRECTION ( 'NONE',  ( 0.0000000000000000000, -1.000000000000000000, 0.0000000000000000000 ) ) ;
#122 = CARTESIAN_POINT ( 'NONE',  ( 269.6000000000000200, 0.0000000000000000000, 0.0000000000000000000 ) ) ;
#123 = VERTEX_POINT ( 'NONE', #102 ) ;
#124 = STYLED_ITEM ( 'NONE', ( #58 ), #156 ) ;
#125 = UNCERTAINTY_MEASURE_WITH_UNIT (LENGTH_MEASURE( 1.000000000000000100E-005 ), #74, 'distance_accuracy_value', 'NONE');
#126 = CARTESIAN_POINT ( 'NONE',  ( 0.0000000000000000000, 0.0000000000000000000, 0.0000000000000000000 ) ) ;
#127 = DIRECTION ( 'NONE',  ( 1.000000000000000000, 0.0000000000000000000, 0.0000000000000000000 ) ) ;
#128 = FILL_AREA_STYLE ('',( #5 ) ) ;
#129 = DIRECTION ( 'NONE',  ( 0.0000000000000000000, -1.000000000000000000, 0.0000000000000000000 ) ) ;
#130 = ORIENTED_EDGE ( 'NONE', *, *, #12, .T. ) ;
#131 = PRESENTATION_LAYER_ASSIGNMENT (  '', '', ( #124 ) ) ;
#132 = DIRECTION ( 'NONE',  ( -0.0000000000000000000, -0.0000000000000000000, 1.000000000000000000 ) ) ;
#133 = PRESENTATION_STYLE_ASSIGNMENT (( #94 ) ) ;
#134 = CARTESIAN_POINT ( 'NONE',  ( 268.6000000000000200, 0.0000000000000000000, 0.0000000000000000000 ) ) ;
#135 = DIRECTION ( 'NONE',  ( -0.0000000000000000000, -0.0000000000000000000, 1.000000000000000000 ) ) ;
#136 = SHAPE_DEFINITION_REPRESENTATION ( #80, #156 ) ;
#137 = FACE_OUTER_BOUND ( 'NONE', #47, .T. ) ;
#138 = CARTESIAN_POINT ( 'NONE',  ( 0.0000000000000000000, 0.0000000000000000000, 0.0000000000000000000 ) ) ;
#139 = SURFACE_STYLE_USAGE ( .BOTH. , #62 ) ;
#140 = DIRECTION ( 'NONE',  ( 0.0000000000000000000, 0.0000000000000000000, -1.000000000000000000 ) ) ;
#141 = MECHANICAL_DESIGN_GEOMETRIC_PRESENTATION_REPRESENTATION (  '', ( #124 ), #149 ) ;
#142 = FACE_OUTER_BOUND ( 'NONE', #118, .T. ) ;
#143 = PRODUCT_DEFINITION_CONTEXT ( 'detailed design', #37, 'design' ) ;
#144 = AXIS2_PLACEMENT_3D ( 'NONE', #57, #135, #69 ) ;
#145 = CIRCLE ( 'NONE', #73, 1.000000000000001800 ) ;
#146 = EDGE_CURVE ( 'NONE', #117, #25, #34, .T. ) ;
#147 = DIRECTION ( 'NONE',  ( -0.0000000000000000000, -0.0000000000000000000, 1.000000000000000000 ) ) ;
#148 = ORIENTED_EDGE ( 'NONE', *, *, #33, .F. ) ;
#149 =( GEOMETRIC_REPRESENTATION_CONTEXT ( 3 ) GLOBAL_UNCERTAINTY_ASSIGNED_CONTEXT ( ( #125 ) ) GLOBAL_UNIT_ASSIGNED_CONTEXT ( ( #74, #152, #85 ) ) REPRESENTATION_CONTEXT ( 'NONE', 'WORKASPACE' ) );
#150 = DIRECTION ( 'NONE',  ( 1.000000000000000000, 0.0000000000000000000, 0.0000000000000000000 ) ) ;
#151 = DIRECTION ( 'NONE',  ( 1.224646799147353200E-016, 1.000000000000000000, 0.0000000000000000000 ) ) ;
#152 =( NAMED_UNIT ( * ) PLANE_ANGLE_UNIT ( ) SI_UNIT ( $, .RADIAN. ) );
#153 = AXIS2_PLACEMENT_3D ( 'NONE', #79, #67, #13 ) ;
#154 = ORIENTED_EDGE ( 'NONE', *, *, #55, .F. ) ;
#155 = EDGE_CURVE ( 'NONE', #117, #38, #68, .T. ) ;
#156 = ADVANCED_BREP_SHAPE_REPRESENTATION ( '690DDR500', ( #87, #16 ), #110 ) ;
#157 = ORIENTED_EDGE ( 'NONE', *, *, #155, .F. ) ;
#158 = PRODUCT ( '690DDR500', '690DDR500', '', ( #106 ) ) ;
ENDSEC;
END-ISO-10303-21;
