ISO-10303-21;
HEADER;
FILE_DESCRIPTION (( 'STEP AP214' ),
    '1' );
FILE_NAME ('306DOR250-S1.step',
    '2017-07-07T05:02:08',
    ( 'install' ),
    ( '' ),
    'SwSTEP 2.0',
    'SolidWorks 2015',
    '' );
FILE_SCHEMA (( 'AUTOMOTIVE_DESIGN' ));
ENDSEC;

DATA;
#1 = ADVANCED_FACE ( 'NONE', ( #86 ), #70, .T. ) ;
#2 = PRODUCT_DEFINITION_FORMATION_WITH_SPECIFIED_SOURCE ( 'ANY', '', #23, .NOT_KNOWN. ) ;
#3 = AXIS2_PLACEMENT_3D ( 'NONE', #82, #7, #93 ) ;
#4 = EDGE_LOOP ( 'NONE', ( #83, #126, #130, #35 ) ) ;
#5 = TOROIDAL_SURFACE ( 'NONE', #12, 129.1649999999999900, 2.665000000000004000 ) ;
#6 = ORIENTED_EDGE ( 'NONE', *, *, #116, .T. ) ;
#7 = DIRECTION ( 'NONE',  ( -0.0000000000000000000, -0.0000000000000000000, -1.000000000000000000 ) ) ;
#8 = PRODUCT_RELATED_PRODUCT_CATEGORY ( 'part', '', ( #23 ) ) ;
#9 = DIRECTION ( 'NONE',  ( 0.0000000000000000000, 0.0000000000000000000, -1.000000000000000000 ) ) ;
#10 =( NAMED_UNIT ( * ) PLANE_ANGLE_UNIT ( ) SI_UNIT ( $, .RADIAN. ) );
#11 = DIRECTION ( 'NONE',  ( 0.0000000000000000000, 0.0000000000000000000, 1.000000000000000000 ) ) ;
#12 = AXIS2_PLACEMENT_3D ( 'NONE', #28, #120, #36 ) ;
#13 = FILL_AREA_STYLE_COLOUR ( '', #148 ) ;
#14 =( LENGTH_UNIT ( ) NAMED_UNIT ( * ) SI_UNIT ( .MILLI., .METRE. ) );
#15 = SURFACE_STYLE_FILL_AREA ( #49 ) ;
#16 = ADVANCED_BREP_SHAPE_REPRESENTATION ( '306DOR250-S1', ( #57, #142 ), #77 ) ;
#17 = AXIS2_PLACEMENT_3D ( 'NONE', #29, #121, #38 ) ;
#18 = ORIENTED_EDGE ( 'NONE', *, *, #81, .F. ) ;
#19 = DIRECTION ( 'NONE',  ( -0.0000000000000000000, -0.0000000000000000000, -1.000000000000000000 ) ) ;
#20 = DIRECTION ( 'NONE',  ( -1.000000000000000000, 0.0000000000000000000, 0.0000000000000000000 ) ) ;
#21 = PRODUCT_CONTEXT ( 'NONE', #125, 'mechanical' ) ;
#22 = FACE_OUTER_BOUND ( 'NONE', #136, .T. ) ;
#23 = PRODUCT ( '306DOR250-S1', '306DOR250-S1', '', ( #21 ) ) ;
#24 = CARTESIAN_POINT ( 'NONE',  ( 0.0000000000000000000, 0.0000000000000000000, 0.0000000000000000000 ) ) ;
#25 = VERTEX_POINT ( 'NONE', #74 ) ;
#26 = AXIS2_PLACEMENT_3D ( 'NONE', #141, #69, #152 ) ;
#27 = VERTEX_POINT ( 'NONE', #46 ) ;
#28 = CARTESIAN_POINT ( 'NONE',  ( 0.0000000000000000000, 0.0000000000000000000, 0.0000000000000000000 ) ) ;
#29 = CARTESIAN_POINT ( 'NONE',  ( -129.1649999999999900, 0.0000000000000000000, 0.0000000000000000000 ) ) ;
#30 = CARTESIAN_POINT ( 'NONE',  ( 0.0000000000000000000, 0.0000000000000000000, 0.0000000000000000000 ) ) ;
#31 = APPLICATION_PROTOCOL_DEFINITION ( 'draft international standard', 'automotive_design', 1998, #110 ) ;
#32 = CIRCLE ( 'NONE', #51, 2.665000000000004000 ) ;
#33 = AXIS2_PLACEMENT_3D ( 'NONE', #95, #19, #106 ) ;
#34 = CIRCLE ( 'NONE', #17, 2.665000000000004000 ) ;
#35 = ORIENTED_EDGE ( 'NONE', *, *, #116, .F. ) ;
#36 = DIRECTION ( 'NONE',  ( -1.000000000000000000, 0.0000000000000000000, 0.0000000000000000000 ) ) ;
#37 = AXIS2_PLACEMENT_3D ( 'NONE', #40, #134, #55 ) ;
#38 = DIRECTION ( 'NONE',  ( 0.0000000000000000000, 0.0000000000000000000, -1.000000000000000000 ) ) ;
#39 = UNCERTAINTY_MEASURE_WITH_UNIT (LENGTH_MEASURE( 1.000000000000000100E-005 ), #135, 'distance_accuracy_value', 'NONE');
#40 = CARTESIAN_POINT ( 'NONE',  ( 129.1649999999999900, 1.581815038118678800E-014, 0.0000000000000000000 ) ) ;
#41 = DIRECTION ( 'NONE',  ( -1.000000000000000000, 0.0000000000000000000, 0.0000000000000000000 ) ) ;
#42 = SURFACE_STYLE_USAGE ( .BOTH. , #129 ) ;
#43 = CARTESIAN_POINT ( 'NONE',  ( -131.8300000000000100, 0.0000000000000000000, 0.0000000000000000000 ) ) ;
#44 = FILL_AREA_STYLE ('',( #124 ) ) ;
#45 = FACE_OUTER_BOUND ( 'NONE', #59, .T. ) ;
#46 = CARTESIAN_POINT ( 'NONE',  ( -126.5000000000000000, 0.0000000000000000000, 3.263683719727706000E-016 ) ) ;
#47 = ADVANCED_FACE ( 'NONE', ( #22 ), #119, .T. ) ;
#48 = PRESENTATION_STYLE_ASSIGNMENT (( #58 ) ) ;
#49 = FILL_AREA_STYLE ('',( #13 ) ) ;
#50 = ORIENTED_EDGE ( 'NONE', *, *, #100, .T. ) ;
#51 = AXIS2_PLACEMENT_3D ( 'NONE', #153, #85, #9 ) ;
#52 = CIRCLE ( 'NONE', #53, 131.8300000000000100 ) ;
#53 = AXIS2_PLACEMENT_3D ( 'NONE', #109, #113, #41 ) ;
#54 = EDGE_CURVE ( 'NONE', #123, #156, #52, .T. ) ;
#55 = DIRECTION ( 'NONE',  ( -1.000000000000000000, -1.224646799147357400E-016, 0.0000000000000000000 ) ) ;
#56 = CARTESIAN_POINT ( 'NONE',  ( 0.0000000000000000000, 0.0000000000000000000, 3.263683719727701500E-016 ) ) ;
#57 = MANIFOLD_SOLID_BREP ( 'Rotation1', #133 ) ;
#58 = SURFACE_STYLE_USAGE ( .BOTH. , #137 ) ;
#59 = EDGE_LOOP ( 'NONE', ( #98, #91, #155, #131 ) ) ;
#60 = AXIS2_PLACEMENT_3D ( 'NONE', #56, #143, #71 ) ;
#61 = CIRCLE ( 'NONE', #60, 126.5000000000000000 ) ;
#62 = ADVANCED_FACE ( 'NONE', ( #45 ), #5, .T. ) ;
#63 = DIRECTION ( 'NONE',  ( -1.000000000000000000, 0.0000000000000000000, 0.0000000000000000000 ) ) ;
#64 = ORIENTED_EDGE ( 'NONE', *, *, #54, .T. ) ;
#65 = CIRCLE ( 'NONE', #37, 2.665000000000000900 ) ;
#66 = EDGE_CURVE ( 'NONE', #27, #25, #73, .T. ) ;
#67 = CIRCLE ( 'NONE', #33, 131.8300000000000100 ) ;
#68 = AXIS2_PLACEMENT_3D ( 'NONE', #30, #96, #20 ) ;
#69 = DIRECTION ( 'NONE',  ( -1.224646799147353200E-016, 1.000000000000000000, 0.0000000000000000000 ) ) ;
#70 = TOROIDAL_SURFACE ( 'NONE', #115, 129.1649999999999900, 2.665000000000004000 ) ;
#71 = DIRECTION ( 'NONE',  ( -1.000000000000000000, 0.0000000000000000000, 0.0000000000000000000 ) ) ;
#72 =( NAMED_UNIT ( * ) PLANE_ANGLE_UNIT ( ) SI_UNIT ( $, .RADIAN. ) );
#73 = CIRCLE ( 'NONE', #3, 126.5000000000000000 ) ;
#74 = CARTESIAN_POINT ( 'NONE',  ( 126.5000000000000000, 1.549178200921401800E-014, 0.0000000000000000000 ) ) ;
#75 = EDGE_CURVE ( 'NONE', #27, #123, #34, .T. ) ;
#76 = UNCERTAINTY_MEASURE_WITH_UNIT (LENGTH_MEASURE( 1.000000000000000100E-005 ), #14, 'distance_accuracy_value', 'NONE');
#77 =( GEOMETRIC_REPRESENTATION_CONTEXT ( 3 ) GLOBAL_UNCERTAINTY_ASSIGNED_CONTEXT ( ( #39 ) ) GLOBAL_UNIT_ASSIGNED_CONTEXT ( ( #135, #10, #97 ) ) REPRESENTATION_CONTEXT ( 'NONE', 'WORKASPACE' ) );
#78 = PRODUCT_DEFINITION_CONTEXT ( 'detailed design', #110, 'design' ) ;
#79 = PRESENTATION_STYLE_ASSIGNMENT (( #42 ) ) ;
#80 = FACE_OUTER_BOUND ( 'NONE', #101, .T. ) ;
#81 = EDGE_CURVE ( 'NONE', #25, #156, #104, .T. ) ;
#82 = CARTESIAN_POINT ( 'NONE',  ( 0.0000000000000000000, 0.0000000000000000000, 3.263683719727701500E-016 ) ) ;
#83 = ORIENTED_EDGE ( 'NONE', *, *, #100, .F. ) ;
#84 = SURFACE_STYLE_FILL_AREA ( #44 ) ;
#85 = DIRECTION ( 'NONE',  ( 0.0000000000000000000, -1.000000000000000000, 0.0000000000000000000 ) ) ;
#86 = FACE_OUTER_BOUND ( 'NONE', #4, .T. ) ;
#87 = DIRECTION ( 'NONE',  ( -0.0000000000000000000, -0.0000000000000000000, -1.000000000000000000 ) ) ;
#88 = ORIENTED_EDGE ( 'NONE', *, *, #75, .T. ) ;
#89 = EDGE_CURVE ( 'NONE', #156, #123, #67, .T. ) ;
#90 = TOROIDAL_SURFACE ( 'NONE', #68, 129.1649999999999900, 2.665000000000004000 ) ;
#91 = ORIENTED_EDGE ( 'NONE', *, *, #75, .F. ) ;
#92 =( NAMED_UNIT ( * ) SI_UNIT ( $, .STERADIAN. ) SOLID_ANGLE_UNIT ( ) );
#93 = DIRECTION ( 'NONE',  ( -1.000000000000000000, 0.0000000000000000000, 0.0000000000000000000 ) ) ;
#94 = STYLED_ITEM ( 'NONE', ( #48 ), #16 ) ;
#95 = CARTESIAN_POINT ( 'NONE',  ( 0.0000000000000000000, 0.0000000000000000000, 0.0000000000000000000 ) ) ;
#96 = DIRECTION ( 'NONE',  ( -0.0000000000000000000, -0.0000000000000000000, -1.000000000000000000 ) ) ;
#97 =( NAMED_UNIT ( * ) SI_UNIT ( $, .STERADIAN. ) SOLID_ANGLE_UNIT ( ) );
#98 = ORIENTED_EDGE ( 'NONE', *, *, #54, .F. ) ;
#99 = DIRECTION ( 'NONE',  ( 1.000000000000000000, 0.0000000000000000000, 0.0000000000000000000 ) ) ;
#100 = EDGE_CURVE ( 'NONE', #156, #25, #65, .T. ) ;
#101 = EDGE_LOOP ( 'NONE', ( #117, #64, #50, #138 ) ) ;
#102 = PRESENTATION_LAYER_ASSIGNMENT (  '', '', ( #94 ) ) ;
#103 =( NAMED_UNIT ( * ) PLANE_ANGLE_UNIT ( ) SI_UNIT ( $, .RADIAN. ) );
#104 = CIRCLE ( 'NONE', #26, 2.665000000000000900 ) ;
#105 = EDGE_CURVE ( 'NONE', #123, #27, #32, .T. ) ;
#106 = DIRECTION ( 'NONE',  ( -1.000000000000000000, 0.0000000000000000000, 0.0000000000000000000 ) ) ;
#107 = CARTESIAN_POINT ( 'NONE',  ( 131.8300000000000100, 1.614451875315955500E-014, 0.0000000000000000000 ) ) ;
#108 = APPLICATION_PROTOCOL_DEFINITION ( 'draft international standard', 'automotive_design', 1998, #125 ) ;
#109 = CARTESIAN_POINT ( 'NONE',  ( 0.0000000000000000000, 0.0000000000000000000, 0.0000000000000000000 ) ) ;
#110 = APPLICATION_CONTEXT ( 'automotive_design' ) ;
#111 = DIRECTION ( 'NONE',  ( -0.0000000000000000000, -0.0000000000000000000, -1.000000000000000000 ) ) ;
#112 = ADVANCED_FACE ( 'NONE', ( #80 ), #90, .T. ) ;
#113 = DIRECTION ( 'NONE',  ( -0.0000000000000000000, -0.0000000000000000000, -1.000000000000000000 ) ) ;
#114 = MECHANICAL_DESIGN_GEOMETRIC_PRESENTATION_REPRESENTATION (  '', ( #94 ), #122 ) ;
#115 = AXIS2_PLACEMENT_3D ( 'NONE', #128, #111, #146 ) ;
#116 = EDGE_CURVE ( 'NONE', #25, #27, #61, .T. ) ;
#117 = ORIENTED_EDGE ( 'NONE', *, *, #105, .F. ) ;
#118 = COLOUR_RGB ( '',0.3843137254901960500, 0.3843137254901960500, 0.3843137254901960500 ) ;
#119 = TOROIDAL_SURFACE ( 'NONE', #127, 129.1649999999999900, 2.665000000000004000 ) ;
#120 = DIRECTION ( 'NONE',  ( -0.0000000000000000000, -0.0000000000000000000, -1.000000000000000000 ) ) ;
#121 = DIRECTION ( 'NONE',  ( 0.0000000000000000000, -1.000000000000000000, 0.0000000000000000000 ) ) ;
#122 =( GEOMETRIC_REPRESENTATION_CONTEXT ( 3 ) GLOBAL_UNCERTAINTY_ASSIGNED_CONTEXT ( ( #147 ) ) GLOBAL_UNIT_ASSIGNED_CONTEXT ( ( #144, #72, #158 ) ) REPRESENTATION_CONTEXT ( 'NONE', 'WORKASPACE' ) );
#123 = VERTEX_POINT ( 'NONE', #43 ) ;
#124 = FILL_AREA_STYLE_COLOUR ( '', #118 ) ;
#125 = APPLICATION_CONTEXT ( 'automotive_design' ) ;
#126 = ORIENTED_EDGE ( 'NONE', *, *, #89, .T. ) ;
#127 = AXIS2_PLACEMENT_3D ( 'NONE', #24, #87, #63 ) ;
#128 = CARTESIAN_POINT ( 'NONE',  ( 0.0000000000000000000, 0.0000000000000000000, 0.0000000000000000000 ) ) ;
#129 = SURFACE_SIDE_STYLE ('',( #15 ) ) ;
#130 = ORIENTED_EDGE ( 'NONE', *, *, #105, .T. ) ;
#131 = ORIENTED_EDGE ( 'NONE', *, *, #81, .T. ) ;
#132 = STYLED_ITEM ( 'NONE', ( #79 ), #57 ) ;
#133 = CLOSED_SHELL ( 'NONE', ( #1, #112, #62, #47 ) ) ;
#134 = DIRECTION ( 'NONE',  ( -1.224646799147353200E-016, 1.000000000000000000, 0.0000000000000000000 ) ) ;
#135 =( LENGTH_UNIT ( ) NAMED_UNIT ( * ) SI_UNIT ( .MILLI., .METRE. ) );
#136 = EDGE_LOOP ( 'NONE', ( #150, #18, #6, #88 ) ) ;
#137 = SURFACE_SIDE_STYLE ('',( #84 ) ) ;
#138 = ORIENTED_EDGE ( 'NONE', *, *, #66, .F. ) ;
#139 = SHAPE_DEFINITION_REPRESENTATION ( #157, #16 ) ;
#140 = PRESENTATION_LAYER_ASSIGNMENT (  '', '', ( #132 ) ) ;
#141 = CARTESIAN_POINT ( 'NONE',  ( 129.1649999999999900, 1.581815038118678800E-014, 0.0000000000000000000 ) ) ;
#142 = AXIS2_PLACEMENT_3D ( 'NONE', #154, #11, #99 ) ;
#143 = DIRECTION ( 'NONE',  ( -0.0000000000000000000, -0.0000000000000000000, -1.000000000000000000 ) ) ;
#144 =( LENGTH_UNIT ( ) NAMED_UNIT ( * ) SI_UNIT ( .MILLI., .METRE. ) );
#145 = MECHANICAL_DESIGN_GEOMETRIC_PRESENTATION_REPRESENTATION (  '', ( #132 ), #151 ) ;
#146 = DIRECTION ( 'NONE',  ( -1.000000000000000000, 0.0000000000000000000, 0.0000000000000000000 ) ) ;
#147 = UNCERTAINTY_MEASURE_WITH_UNIT (LENGTH_MEASURE( 1.000000000000000100E-005 ), #144, 'distance_accuracy_value', 'NONE');
#148 = COLOUR_RGB ( '',0.3843137254901960500, 0.3843137254901960500, 0.3843137254901960500 ) ;
#149 = PRODUCT_DEFINITION ( 'UNKNOWN', '', #2, #78 ) ;
#150 = ORIENTED_EDGE ( 'NONE', *, *, #89, .F. ) ;
#151 =( GEOMETRIC_REPRESENTATION_CONTEXT ( 3 ) GLOBAL_UNCERTAINTY_ASSIGNED_CONTEXT ( ( #76 ) ) GLOBAL_UNIT_ASSIGNED_CONTEXT ( ( #14, #103, #92 ) ) REPRESENTATION_CONTEXT ( 'NONE', 'WORKASPACE' ) );
#152 = DIRECTION ( 'NONE',  ( -1.000000000000000000, -1.224646799147357400E-016, 0.0000000000000000000 ) ) ;
#153 = CARTESIAN_POINT ( 'NONE',  ( -129.1649999999999900, 0.0000000000000000000, 0.0000000000000000000 ) ) ;
#154 = CARTESIAN_POINT ( 'NONE',  ( 0.0000000000000000000, 0.0000000000000000000, 0.0000000000000000000 ) ) ;
#155 = ORIENTED_EDGE ( 'NONE', *, *, #66, .T. ) ;
#156 = VERTEX_POINT ( 'NONE', #107 ) ;
#157 = PRODUCT_DEFINITION_SHAPE ( 'NONE', 'NONE',  #149 ) ;
#158 =( NAMED_UNIT ( * ) SI_UNIT ( $, .STERADIAN. ) SOLID_ANGLE_UNIT ( ) );
ENDSEC;
END-ISO-10303-21;
