ISO-10303-21;
HEADER;
FILE_DESCRIPTION (( 'STEP AP214' ),
    '1' );
FILE_NAME ('490DFL040-S-S5.stp',
    '2017-10-11T10:04:02',
    ( '' ),
    ( '' ),
    'SwSTEP 2.0',
    'SolidWorks 2015',
    '' );
FILE_SCHEMA (( 'AUTOMOTIVE_DESIGN' ));
ENDSEC;

DATA;
#1 = FILL_AREA_STYLE ('',( #31 ) ) ;
#2 = ORIENTED_EDGE ( 'NONE', *, *, #8, .F. ) ;
#3 = EDGE_CURVE ( 'NONE', #147, #181, #175, .T. ) ;
#4 = AXIS2_PLACEMENT_3D ( 'NONE', #57, #91, #193 ) ;
#5 = ORIENTED_EDGE ( 'NONE', *, *, #100, .T. ) ;
#6 = CARTESIAN_POINT ( 'NONE',  ( 18.30000000000000100, 0.0000000000000000000, 0.0000000000000000000 ) ) ;
#7 = VERTEX_POINT ( 'NONE', #75 ) ;
#8 = EDGE_CURVE ( 'NONE', #24, #97, #165, .T. ) ;
#9 = FACE_OUTER_BOUND ( 'NONE', #152, .T. ) ;
#10 =( NAMED_UNIT ( * ) SI_UNIT ( $, .STERADIAN. ) SOLID_ANGLE_UNIT ( ) );
#11 = CLOSED_SHELL ( 'NONE', ( #172, #160, #13, #67, #153, #135 ) ) ;
#12 = CARTESIAN_POINT ( 'NONE',  ( 0.0000000000000000000, 0.0000000000000000000, 0.0000000000000000000 ) ) ;
#13 = ADVANCED_FACE ( 'NONE', ( #171 ), #195, .T. ) ;
#14 = DIRECTION ( 'NONE',  ( 1.000000000000000000, 0.0000000000000000000, 0.0000000000000000000 ) ) ;
#15 = ORIENTED_EDGE ( 'NONE', *, *, #183, .T. ) ;
#16 = AXIS2_PLACEMENT_3D ( 'NONE', #40, #176, #208 ) ;
#17 = DIRECTION ( 'NONE',  ( 0.0000000000000000000, 0.0000000000000000000, 1.000000000000000000 ) ) ;
#18 = CARTESIAN_POINT ( 'NONE',  ( 0.0000000000000000000, 0.0000000000000000000, -2.000000000000000000 ) ) ;
#19 = UNCERTAINTY_MEASURE_WITH_UNIT (LENGTH_MEASURE( 1.000000000000000100E-005 ), #53, 'distance_accuracy_value', 'NONE');
#20 =( LENGTH_UNIT ( ) NAMED_UNIT ( * ) SI_UNIT ( .MILLI., .METRE. ) );
#21 = LINE ( 'NONE', #26, #212 ) ;
#22 = DIRECTION ( 'NONE',  ( 0.0000000000000000000, 0.0000000000000000000, 1.000000000000000000 ) ) ;
#23 = DIRECTION ( 'NONE',  ( 1.000000000000000000, 0.0000000000000000000, 0.0000000000000000000 ) ) ;
#24 = VERTEX_POINT ( 'NONE', #124 ) ;
#25 = AXIS2_PLACEMENT_3D ( 'NONE', #169, #46, #184 ) ;
#26 = CARTESIAN_POINT ( 'NONE',  ( -24.07500000000000300, 2.948337168947253100E-015, -2.000000000000000000 ) ) ;
#27 = EDGE_LOOP ( 'NONE', ( #131, #119 ) ) ;
#28 = FACE_OUTER_BOUND ( 'NONE', #141, .T. ) ;
#29 = AXIS2_PLACEMENT_3D ( 'NONE', #32, #136, #14 ) ;
#30 = APPLICATION_PROTOCOL_DEFINITION ( 'draft international standard', 'automotive_design', 1998, #47 ) ;
#31 = FILL_AREA_STYLE_COLOUR ( '', #85 ) ;
#32 = CARTESIAN_POINT ( 'NONE',  ( 0.0000000000000000000, 0.0000000000000000000, 0.0000000000000000000 ) ) ;
#33 = ORIENTED_EDGE ( 'NONE', *, *, #210, .F. ) ;
#34 = PLANE ( 'NONE',  #63 ) ;
#35 = UNCERTAINTY_MEASURE_WITH_UNIT (LENGTH_MEASURE( 1.000000000000000100E-005 ), #20, 'distance_accuracy_value', 'NONE');
#36 = FACE_OUTER_BOUND ( 'NONE', #122, .T. ) ;
#37 = DIRECTION ( 'NONE',  ( 0.0000000000000000000, 0.0000000000000000000, 1.000000000000000000 ) ) ;
#38 = ORIENTED_EDGE ( 'NONE', *, *, #198, .T. ) ;
#39 =( GEOMETRIC_REPRESENTATION_CONTEXT ( 3 ) GLOBAL_UNCERTAINTY_ASSIGNED_CONTEXT ( ( #19 ) ) GLOBAL_UNIT_ASSIGNED_CONTEXT ( ( #53, #86, #186 ) ) REPRESENTATION_CONTEXT ( 'NONE', 'WORKASPACE' ) );
#40 = CARTESIAN_POINT ( 'NONE',  ( 0.0000000000000000000, 0.0000000000000000000, -2.000000000000000000 ) ) ;
#41 = DIRECTION ( 'NONE',  ( 0.0000000000000000000, 0.0000000000000000000, 1.000000000000000000 ) ) ;
#42 = AXIS2_PLACEMENT_3D ( 'NONE', #18, #72, #156 ) ;
#43 = ORIENTED_EDGE ( 'NONE', *, *, #116, .T. ) ;
#44 = AXIS2_PLACEMENT_3D ( 'NONE', #12, #118, #132 ) ;
#45 = VECTOR ( 'NONE', #37, 1000.000000000000000 ) ;
#46 = DIRECTION ( 'NONE',  ( 0.0000000000000000000, 0.0000000000000000000, 1.000000000000000000 ) ) ;
#47 = APPLICATION_CONTEXT ( 'automotive_design' ) ;
#48 = MECHANICAL_DESIGN_GEOMETRIC_PRESENTATION_REPRESENTATION (  '', ( #151 ), #39 ) ;
#49 = PRODUCT_DEFINITION_SHAPE ( 'NONE', 'NONE',  #71 ) ;
#50 = EDGE_LOOP ( 'NONE', ( #164, #76, #38, #161 ) ) ;
#51 = EDGE_CURVE ( 'NONE', #181, #147, #197, .T. ) ;
#52 = DIRECTION ( 'NONE',  ( 0.0000000000000000000, 0.0000000000000000000, 1.000000000000000000 ) ) ;
#53 =( LENGTH_UNIT ( ) NAMED_UNIT ( * ) SI_UNIT ( .MILLI., .METRE. ) );
#54 = DIRECTION ( 'NONE',  ( 1.000000000000000000, 0.0000000000000000000, 0.0000000000000000000 ) ) ;
#55 = ORIENTED_EDGE ( 'NONE', *, *, #51, .F. ) ;
#56 = CARTESIAN_POINT ( 'NONE',  ( 18.30000000000000100, 0.0000000000000000000, -2.000000000000000000 ) ) ;
#57 = CARTESIAN_POINT ( 'NONE',  ( 0.0000000000000000000, 0.0000000000000000000, -2.000000000000000000 ) ) ;
#58 = EDGE_LOOP ( 'NONE', ( #192, #33 ) ) ;
#59 = DIRECTION ( 'NONE',  ( 0.0000000000000000000, 0.0000000000000000000, 1.000000000000000000 ) ) ;
#60 = EDGE_CURVE ( 'NONE', #7, #94, #182, .T. ) ;
#61 = ORIENTED_EDGE ( 'NONE', *, *, #210, .T. ) ;
#62 = VERTEX_POINT ( 'NONE', #107 ) ;
#63 = AXIS2_PLACEMENT_3D ( 'NONE', #190, #17, #138 ) ;
#64 = PRODUCT_CONTEXT ( 'NONE', #47, 'mechanical' ) ;
#65 = SURFACE_STYLE_USAGE ( .BOTH. , #170 ) ;
#66 = DIRECTION ( 'NONE',  ( 0.0000000000000000000, 0.0000000000000000000, 1.000000000000000000 ) ) ;
#67 = ADVANCED_FACE ( 'NONE', ( #206, #194 ), #129, .F. ) ;
#68 = PRODUCT ( '490DFL040-S-S5', '490DFL040-S-S5', '', ( #64 ) ) ;
#69 = FACE_OUTER_BOUND ( 'NONE', #154, .T. ) ;
#70 = CARTESIAN_POINT ( 'NONE',  ( 0.0000000000000000000, 0.0000000000000000000, -2.000000000000000000 ) ) ;
#71 = PRODUCT_DEFINITION ( 'UNKNOWN', '', #108, #173 ) ;
#72 = DIRECTION ( 'NONE',  ( 0.0000000000000000000, 0.0000000000000000000, 1.000000000000000000 ) ) ;
#73 = SURFACE_SIDE_STYLE ('',( #155 ) ) ;
#74 = CYLINDRICAL_SURFACE ( 'NONE', #78, 18.30000000000000100 ) ;
#75 = CARTESIAN_POINT ( 'NONE',  ( -24.07500000000000300, 2.948337168947253100E-015, 0.0000000000000000000 ) ) ;
#76 = ORIENTED_EDGE ( 'NONE', *, *, #51, .T. ) ;
#77 = PRESENTATION_LAYER_ASSIGNMENT (  '', '', ( #87 ) ) ;
#78 = AXIS2_PLACEMENT_3D ( 'NONE', #142, #41, #127 ) ;
#79 = SHAPE_DEFINITION_REPRESENTATION ( #49, #96 ) ;
#80 = CIRCLE ( 'NONE', #29, 24.07500000000000300 ) ;
#81 = VECTOR ( 'NONE', #52, 1000.000000000000000 ) ;
#82 = COLOUR_RGB ( '',0.7529411764705882200, 0.7529411764705882200, 0.7529411764705882200 ) ;
#83 = PRODUCT_RELATED_PRODUCT_CATEGORY ( 'part', '', ( #68 ) ) ;
#84 = APPLICATION_PROTOCOL_DEFINITION ( 'draft international standard', 'automotive_design', 1998, #200 ) ;
#85 = COLOUR_RGB ( '',0.7529411764705882200, 0.7529411764705882200, 0.7529411764705882200 ) ;
#86 =( NAMED_UNIT ( * ) PLANE_ANGLE_UNIT ( ) SI_UNIT ( $, .RADIAN. ) );
#87 = STYLED_ITEM ( 'NONE', ( #102 ), #96 ) ;
#88 = DIRECTION ( 'NONE',  ( 0.0000000000000000000, 0.0000000000000000000, 1.000000000000000000 ) ) ;
#89 = CARTESIAN_POINT ( 'NONE',  ( 24.07500000000000300, 0.0000000000000000000, -2.000000000000000000 ) ) ;
#90 = VERTEX_POINT ( 'NONE', #6 ) ;
#91 = DIRECTION ( 'NONE',  ( 0.0000000000000000000, 0.0000000000000000000, 1.000000000000000000 ) ) ;
#92 = ORIENTED_EDGE ( 'NONE', *, *, #100, .F. ) ;
#93 = CYLINDRICAL_SURFACE ( 'NONE', #42, 24.07500000000000300 ) ;
#94 = VERTEX_POINT ( 'NONE', #209 ) ;
#95 = AXIS2_PLACEMENT_3D ( 'NONE', #204, #88, #54 ) ;
#96 = ADVANCED_BREP_SHAPE_REPRESENTATION ( '490DFL040-S-S5', ( #213, #25 ), #143 ) ;
#97 = VERTEX_POINT ( 'NONE', #56 ) ;
#98 =( NAMED_UNIT ( * ) SI_UNIT ( $, .STERADIAN. ) SOLID_ANGLE_UNIT ( ) );
#99 = FILL_AREA_STYLE ('',( #202 ) ) ;
#100 = EDGE_CURVE ( 'NONE', #24, #62, #199, .T. ) ;
#101 = MECHANICAL_DESIGN_GEOMETRIC_PRESENTATION_REPRESENTATION (  '', ( #87 ), #166 ) ;
#102 = PRESENTATION_STYLE_ASSIGNMENT (( #65 ) ) ;
#103 = EDGE_CURVE ( 'NONE', #181, #7, #21, .T. ) ;
#104 = ORIENTED_EDGE ( 'NONE', *, *, #150, .T. ) ;
#105 = DIRECTION ( 'NONE',  ( 1.000000000000000000, 0.0000000000000000000, 0.0000000000000000000 ) ) ;
#106 = CARTESIAN_POINT ( 'NONE',  ( 0.0000000000000000000, 0.0000000000000000000, -2.000000000000000000 ) ) ;
#107 = CARTESIAN_POINT ( 'NONE',  ( -18.30000000000000100, 2.241103642439656700E-015, 0.0000000000000000000 ) ) ;
#108 = PRODUCT_DEFINITION_FORMATION_WITH_SPECIFIED_SOURCE ( 'ANY', '', #68, .NOT_KNOWN. ) ;
#109 = ORIENTED_EDGE ( 'NONE', *, *, #183, .F. ) ;
#110 = CARTESIAN_POINT ( 'NONE',  ( -18.30000000000000100, 2.241103642439656700E-015, -2.000000000000000000 ) ) ;
#111 = AXIS2_PLACEMENT_3D ( 'NONE', #113, #179, #178 ) ;
#112 = DIRECTION ( 'NONE',  ( 1.000000000000000000, 0.0000000000000000000, 0.0000000000000000000 ) ) ;
#113 = CARTESIAN_POINT ( 'NONE',  ( 0.0000000000000000000, 0.0000000000000000000, -2.000000000000000000 ) ) ;
#114 = ORIENTED_EDGE ( 'NONE', *, *, #198, .F. ) ;
#115 = ORIENTED_EDGE ( 'NONE', *, *, #3, .F. ) ;
#116 = EDGE_CURVE ( 'NONE', #90, #62, #203, .T. ) ;
#117 =( NAMED_UNIT ( * ) PLANE_ANGLE_UNIT ( ) SI_UNIT ( $, .RADIAN. ) );
#118 = DIRECTION ( 'NONE',  ( 0.0000000000000000000, 0.0000000000000000000, 1.000000000000000000 ) ) ;
#119 = ORIENTED_EDGE ( 'NONE', *, *, #8, .T. ) ;
#120 = DIRECTION ( 'NONE',  ( 0.0000000000000000000, 0.0000000000000000000, 1.000000000000000000 ) ) ;
#121 = AXIS2_PLACEMENT_3D ( 'NONE', #126, #66, #174 ) ;
#122 = EDGE_LOOP ( 'NONE', ( #92, #149, #104, #43 ) ) ;
#123 = CARTESIAN_POINT ( 'NONE',  ( 24.07500000000000300, 0.0000000000000000000, -2.000000000000000000 ) ) ;
#124 = CARTESIAN_POINT ( 'NONE',  ( -18.30000000000000100, 2.241103642439656700E-015, -2.000000000000000000 ) ) ;
#125 = ORIENTED_EDGE ( 'NONE', *, *, #60, .T. ) ;
#126 = CARTESIAN_POINT ( 'NONE',  ( 0.0000000000000000000, 0.0000000000000000000, 0.0000000000000000000 ) ) ;
#127 = DIRECTION ( 'NONE',  ( 1.000000000000000000, 0.0000000000000000000, 0.0000000000000000000 ) ) ;
#128 = DIRECTION ( 'NONE',  ( 0.0000000000000000000, 0.0000000000000000000, 1.000000000000000000 ) ) ;
#129 = PLANE ( 'NONE',  #111 ) ;
#130 = UNCERTAINTY_MEASURE_WITH_UNIT (LENGTH_MEASURE( 1.000000000000000100E-005 ), #201, 'distance_accuracy_value', 'NONE');
#131 = ORIENTED_EDGE ( 'NONE', *, *, #180, .T. ) ;
#132 = DIRECTION ( 'NONE',  ( 1.000000000000000000, 0.0000000000000000000, 0.0000000000000000000 ) ) ;
#133 = ORIENTED_EDGE ( 'NONE', *, *, #103, .T. ) ;
#134 = LINE ( 'NONE', #123, #45 ) ;
#135 = ADVANCED_FACE ( 'NONE', ( #36 ), #74, .F. ) ;
#136 = DIRECTION ( 'NONE',  ( 0.0000000000000000000, 0.0000000000000000000, 1.000000000000000000 ) ) ;
#137 = ORIENTED_EDGE ( 'NONE', *, *, #3, .T. ) ;
#138 = DIRECTION ( 'NONE',  ( 1.000000000000000000, 0.0000000000000000000, -0.0000000000000000000 ) ) ;
#139 = AXIS2_PLACEMENT_3D ( 'NONE', #70, #120, #189 ) ;
#140 = SURFACE_STYLE_FILL_AREA ( #1 ) ;
#141 = EDGE_LOOP ( 'NONE', ( #15, #125 ) ) ;
#142 = CARTESIAN_POINT ( 'NONE',  ( 0.0000000000000000000, 0.0000000000000000000, -2.000000000000000000 ) ) ;
#143 =( GEOMETRIC_REPRESENTATION_CONTEXT ( 3 ) GLOBAL_UNCERTAINTY_ASSIGNED_CONTEXT ( ( #35 ) ) GLOBAL_UNIT_ASSIGNED_CONTEXT ( ( #20, #117, #10 ) ) REPRESENTATION_CONTEXT ( 'NONE', 'WORKASPACE' ) );
#144 = EDGE_LOOP ( 'NONE', ( #115, #55 ) ) ;
#145 = DIRECTION ( 'NONE',  ( 0.0000000000000000000, 0.0000000000000000000, 1.000000000000000000 ) ) ;
#146 = AXIS2_PLACEMENT_3D ( 'NONE', #106, #128, #23 ) ;
#147 = VERTEX_POINT ( 'NONE', #89 ) ;
#148 = CIRCLE ( 'NONE', #44, 18.30000000000000100 ) ;
#149 = ORIENTED_EDGE ( 'NONE', *, *, #180, .F. ) ;
#150 = EDGE_CURVE ( 'NONE', #97, #90, #187, .T. ) ;
#151 = STYLED_ITEM ( 'NONE', ( #188 ), #213 ) ;
#152 = EDGE_LOOP ( 'NONE', ( #2, #5, #61, #168 ) ) ;
#153 = ADVANCED_FACE ( 'NONE', ( #207, #28 ), #34, .T. ) ;
#154 = EDGE_LOOP ( 'NONE', ( #137, #133, #109, #114 ) ) ;
#155 = SURFACE_STYLE_FILL_AREA ( #99 ) ;
#156 = DIRECTION ( 'NONE',  ( 1.000000000000000000, 0.0000000000000000000, 0.0000000000000000000 ) ) ;
#157 = AXIS2_PLACEMENT_3D ( 'NONE', #163, #145, #105 ) ;
#158 = CARTESIAN_POINT ( 'NONE',  ( -24.07500000000000300, 2.948337168947253100E-015, -2.000000000000000000 ) ) ;
#159 = CARTESIAN_POINT ( 'NONE',  ( 0.0000000000000000000, 0.0000000000000000000, 0.0000000000000000000 ) ) ;
#160 = ADVANCED_FACE ( 'NONE', ( #69 ), #93, .T. ) ;
#161 = ORIENTED_EDGE ( 'NONE', *, *, #60, .F. ) ;
#162 = DIRECTION ( 'NONE',  ( 0.0000000000000000000, 0.0000000000000000000, 1.000000000000000000 ) ) ;
#163 = CARTESIAN_POINT ( 'NONE',  ( 0.0000000000000000000, 0.0000000000000000000, -2.000000000000000000 ) ) ;
#164 = ORIENTED_EDGE ( 'NONE', *, *, #103, .F. ) ;
#165 = CIRCLE ( 'NONE', #16, 18.30000000000000100 ) ;
#166 =( GEOMETRIC_REPRESENTATION_CONTEXT ( 3 ) GLOBAL_UNCERTAINTY_ASSIGNED_CONTEXT ( ( #130 ) ) GLOBAL_UNIT_ASSIGNED_CONTEXT ( ( #201, #185, #98 ) ) REPRESENTATION_CONTEXT ( 'NONE', 'WORKASPACE' ) );
#167 = AXIS2_PLACEMENT_3D ( 'NONE', #159, #59, #112 ) ;
#168 = ORIENTED_EDGE ( 'NONE', *, *, #150, .F. ) ;
#169 = CARTESIAN_POINT ( 'NONE',  ( 0.0000000000000000000, 0.0000000000000000000, 0.0000000000000000000 ) ) ;
#170 = SURFACE_SIDE_STYLE ('',( #140 ) ) ;
#171 = FACE_OUTER_BOUND ( 'NONE', #50, .T. ) ;
#172 = ADVANCED_FACE ( 'NONE', ( #9 ), #196, .F. ) ;
#173 = PRODUCT_DEFINITION_CONTEXT ( 'detailed design', #200, 'design' ) ;
#174 = DIRECTION ( 'NONE',  ( 1.000000000000000000, 0.0000000000000000000, 0.0000000000000000000 ) ) ;
#175 = CIRCLE ( 'NONE', #4, 24.07500000000000300 ) ;
#176 = DIRECTION ( 'NONE',  ( 0.0000000000000000000, 0.0000000000000000000, 1.000000000000000000 ) ) ;
#177 = PRESENTATION_LAYER_ASSIGNMENT (  '', '', ( #151 ) ) ;
#178 = DIRECTION ( 'NONE',  ( 1.000000000000000000, 0.0000000000000000000, -0.0000000000000000000 ) ) ;
#179 = DIRECTION ( 'NONE',  ( 0.0000000000000000000, 0.0000000000000000000, 1.000000000000000000 ) ) ;
#180 = EDGE_CURVE ( 'NONE', #97, #24, #211, .T. ) ;
#181 = VERTEX_POINT ( 'NONE', #158 ) ;
#182 = CIRCLE ( 'NONE', #167, 24.07500000000000300 ) ;
#183 = EDGE_CURVE ( 'NONE', #94, #7, #80, .T. ) ;
#184 = DIRECTION ( 'NONE',  ( 1.000000000000000000, 0.0000000000000000000, 0.0000000000000000000 ) ) ;
#185 =( NAMED_UNIT ( * ) PLANE_ANGLE_UNIT ( ) SI_UNIT ( $, .RADIAN. ) );
#186 =( NAMED_UNIT ( * ) SI_UNIT ( $, .STERADIAN. ) SOLID_ANGLE_UNIT ( ) );
#187 = LINE ( 'NONE', #205, #81 ) ;
#188 = PRESENTATION_STYLE_ASSIGNMENT (( #191 ) ) ;
#189 = DIRECTION ( 'NONE',  ( 1.000000000000000000, 0.0000000000000000000, 0.0000000000000000000 ) ) ;
#190 = CARTESIAN_POINT ( 'NONE',  ( 0.0000000000000000000, 0.0000000000000000000, 0.0000000000000000000 ) ) ;
#191 = SURFACE_STYLE_USAGE ( .BOTH. , #73 ) ;
#192 = ORIENTED_EDGE ( 'NONE', *, *, #116, .F. ) ;
#193 = DIRECTION ( 'NONE',  ( 1.000000000000000000, 0.0000000000000000000, 0.0000000000000000000 ) ) ;
#194 = FACE_OUTER_BOUND ( 'NONE', #144, .T. ) ;
#195 = CYLINDRICAL_SURFACE ( 'NONE', #146, 24.07500000000000300 ) ;
#196 = CYLINDRICAL_SURFACE ( 'NONE', #139, 18.30000000000000100 ) ;
#197 = CIRCLE ( 'NONE', #157, 24.07500000000000300 ) ;
#198 = EDGE_CURVE ( 'NONE', #147, #94, #134, .T. ) ;
#199 = LINE ( 'NONE', #110, #214 ) ;
#200 = APPLICATION_CONTEXT ( 'automotive_design' ) ;
#201 =( LENGTH_UNIT ( ) NAMED_UNIT ( * ) SI_UNIT ( .MILLI., .METRE. ) );
#202 = FILL_AREA_STYLE_COLOUR ( '', #82 ) ;
#203 = CIRCLE ( 'NONE', #121, 18.30000000000000100 ) ;
#204 = CARTESIAN_POINT ( 'NONE',  ( 0.0000000000000000000, 0.0000000000000000000, -2.000000000000000000 ) ) ;
#205 = CARTESIAN_POINT ( 'NONE',  ( 18.30000000000000100, 0.0000000000000000000, -2.000000000000000000 ) ) ;
#206 = FACE_BOUND ( 'NONE', #27, .T. ) ;
#207 = FACE_BOUND ( 'NONE', #58, .T. ) ;
#208 = DIRECTION ( 'NONE',  ( 1.000000000000000000, 0.0000000000000000000, 0.0000000000000000000 ) ) ;
#209 = CARTESIAN_POINT ( 'NONE',  ( 24.07500000000000300, 0.0000000000000000000, 0.0000000000000000000 ) ) ;
#210 = EDGE_CURVE ( 'NONE', #62, #90, #148, .T. ) ;
#211 = CIRCLE ( 'NONE', #95, 18.30000000000000100 ) ;
#212 = VECTOR ( 'NONE', #162, 1000.000000000000000 ) ;
#213 = MANIFOLD_SOLID_BREP ( 'Aufsatz-Linear austragen1', #11 ) ;
#214 = VECTOR ( 'NONE', #22, 1000.000000000000000 ) ;
ENDSEC;
END-ISO-10303-21;
