ISO-10303-21;
HEADER;
FILE_DESCRIPTION (( 'STEP AP214' ),
    '1' );
FILE_NAME ('690DDR400.step',
    '2017-07-10T05:46:04',
    ( 'install' ),
    ( '' ),
    'SwSTEP 2.0',
    'SolidWorks 2015',
    '' );
FILE_SCHEMA (( 'AUTOMOTIVE_DESIGN' ));
ENDSEC;

DATA;
#1 =( GEOMETRIC_REPRESENTATION_CONTEXT ( 3 ) GLOBAL_UNCERTAINTY_ASSIGNED_CONTEXT ( ( #78 ) ) GLOBAL_UNIT_ASSIGNED_CONTEXT ( ( #139, #62, #151 ) ) REPRESENTATION_CONTEXT ( 'NONE', 'WORKASPACE' ) );
#2 = SURFACE_STYLE_FILL_AREA ( #109 ) ;
#3 = COLOUR_RGB ( '',0.7254901960784313500, 0.4470588235294117300, 0.3686274509803921800 ) ;
#4 = CARTESIAN_POINT ( 'NONE',  ( 0.0000000000000000000, 0.0000000000000000000, 0.0000000000000000000 ) ) ;
#5 = CARTESIAN_POINT ( 'NONE',  ( 219.8000000000000100, 0.0000000000000000000, 0.0000000000000000000 ) ) ;
#6 = APPLICATION_PROTOCOL_DEFINITION ( 'draft international standard', 'automotive_design', 1998, #16 ) ;
#7 = APPLICATION_CONTEXT ( 'automotive_design' ) ;
#8 = FACE_OUTER_BOUND ( 'NONE', #42, .T. ) ;
#9 = ADVANCED_FACE ( 'NONE', ( #101 ), #23, .T. ) ;
#10 = COLOUR_RGB ( '',0.7254901960784313500, 0.4470588235294117300, 0.3686274509803921800 ) ;
#11 = ORIENTED_EDGE ( 'NONE', *, *, #92, .T. ) ;
#12 = STYLED_ITEM ( 'NONE', ( #131 ), #47 ) ;
#13 = EDGE_LOOP ( 'NONE', ( #116, #83, #46, #142 ) ) ;
#14 = DIRECTION ( 'NONE',  ( -0.0000000000000000000, -0.0000000000000000000, 1.000000000000000000 ) ) ;
#15 = CIRCLE ( 'NONE', #140, 1.000000000000000900 ) ;
#16 = APPLICATION_CONTEXT ( 'automotive_design' ) ;
#17 = ORIENTED_EDGE ( 'NONE', *, *, #143, .T. ) ;
#18 = FACE_OUTER_BOUND ( 'NONE', #115, .T. ) ;
#19 = PRESENTATION_LAYER_ASSIGNMENT (  '', '', ( #12 ) ) ;
#20 = ORIENTED_EDGE ( 'NONE', *, *, #102, .T. ) ;
#21 = UNCERTAINTY_MEASURE_WITH_UNIT (LENGTH_MEASURE( 1.000000000000000100E-005 ), #41, 'distance_accuracy_value', 'NONE');
#22 = AXIS2_PLACEMENT_3D ( 'NONE', #99, #26, #112 ) ;
#23 = TOROIDAL_SURFACE ( 'NONE', #30, 218.8000000000000100, 1.000000000000001300 ) ;
#24 = DIRECTION ( 'NONE',  ( 1.000000000000000000, 0.0000000000000000000, 0.0000000000000000000 ) ) ;
#25 = CARTESIAN_POINT ( 'NONE',  ( 0.0000000000000000000, 0.0000000000000000000, -1.224646799147354900E-016 ) ) ;
#26 = DIRECTION ( 'NONE',  ( -0.0000000000000000000, -0.0000000000000000000, 1.000000000000000000 ) ) ;
#27 = SURFACE_SIDE_STYLE ('',( #44 ) ) ;
#28 = MECHANICAL_DESIGN_GEOMETRIC_PRESENTATION_REPRESENTATION (  '', ( #12 ), #33 ) ;
#29 = CIRCLE ( 'NONE', #129, 1.000000000000001300 ) ;
#30 = AXIS2_PLACEMENT_3D ( 'NONE', #98, #86, #24 ) ;
#31 = CIRCLE ( 'NONE', #56, 1.000000000000000900 ) ;
#32 = ADVANCED_FACE ( 'NONE', ( #8 ), #34, .T. ) ;
#33 =( GEOMETRIC_REPRESENTATION_CONTEXT ( 3 ) GLOBAL_UNCERTAINTY_ASSIGNED_CONTEXT ( ( #21 ) ) GLOBAL_UNIT_ASSIGNED_CONTEXT ( ( #41, #124, #53 ) ) REPRESENTATION_CONTEXT ( 'NONE', 'WORKASPACE' ) );
#34 = TOROIDAL_SURFACE ( 'NONE', #39, 218.8000000000000100, 1.000000000000001300 ) ;
#35 = SURFACE_SIDE_STYLE ('',( #2 ) ) ;
#36 = DIRECTION ( 'NONE',  ( 1.000000000000000000, 0.0000000000000000000, 0.0000000000000000000 ) ) ;
#37 = VERTEX_POINT ( 'NONE', #136 ) ;
#38 = DIRECTION ( 'NONE',  ( -0.0000000000000000000, -0.0000000000000000000, 1.000000000000000000 ) ) ;
#39 = AXIS2_PLACEMENT_3D ( 'NONE', #71, #149, #59 ) ;
#40 = CARTESIAN_POINT ( 'NONE',  ( -218.8000000000000100, 2.679527196534409000E-014, 0.0000000000000000000 ) ) ;
#41 =( LENGTH_UNIT ( ) NAMED_UNIT ( * ) SI_UNIT ( .MILLI., .METRE. ) );
#42 = EDGE_LOOP ( 'NONE', ( #141, #11, #81, #91 ) ) ;
#43 = ORIENTED_EDGE ( 'NONE', *, *, #108, .F. ) ;
#44 = SURFACE_STYLE_FILL_AREA ( #100 ) ;
#45 = AXIS2_PLACEMENT_3D ( 'NONE', #4, #38, #138 ) ;
#46 = ORIENTED_EDGE ( 'NONE', *, *, #134, .T. ) ;
#47 = ADVANCED_BREP_SHAPE_REPRESENTATION ( '690DDR400', ( #132, #57 ), #1 ) ;
#48 = CIRCLE ( 'NONE', #118, 217.8000000000000100 ) ;
#49 = ADVANCED_FACE ( 'NONE', ( #130 ), #64, .T. ) ;
#50 =( LENGTH_UNIT ( ) NAMED_UNIT ( * ) SI_UNIT ( .MILLI., .METRE. ) );
#51 = DIRECTION ( 'NONE',  ( 0.0000000000000000000, -1.000000000000000000, 0.0000000000000000000 ) ) ;
#52 = DIRECTION ( 'NONE',  ( -1.000000000000000000, 1.224646799147349500E-016, 0.0000000000000000000 ) ) ;
#53 =( NAMED_UNIT ( * ) SI_UNIT ( $, .STERADIAN. ) SOLID_ANGLE_UNIT ( ) );
#54 = ORIENTED_EDGE ( 'NONE', *, *, #117, .T. ) ;
#55 = DIRECTION ( 'NONE',  ( 0.0000000000000000000, -1.000000000000000000, 0.0000000000000000000 ) ) ;
#56 = AXIS2_PLACEMENT_3D ( 'NONE', #127, #155, #158 ) ;
#57 = AXIS2_PLACEMENT_3D ( 'NONE', #87, #63, #153 ) ;
#58 =( NAMED_UNIT ( * ) SI_UNIT ( $, .STERADIAN. ) SOLID_ANGLE_UNIT ( ) );
#59 = DIRECTION ( 'NONE',  ( 1.000000000000000000, 0.0000000000000000000, 0.0000000000000000000 ) ) ;
#60 = DIRECTION ( 'NONE',  ( -0.0000000000000000000, -0.0000000000000000000, 1.000000000000000000 ) ) ;
#61 = AXIS2_PLACEMENT_3D ( 'NONE', #152, #55, #156 ) ;
#62 =( NAMED_UNIT ( * ) PLANE_ANGLE_UNIT ( ) SI_UNIT ( $, .RADIAN. ) );
#63 = DIRECTION ( 'NONE',  ( 0.0000000000000000000, 0.0000000000000000000, 1.000000000000000000 ) ) ;
#64 = TOROIDAL_SURFACE ( 'NONE', #45, 218.8000000000000100, 1.000000000000001300 ) ;
#65 = DIRECTION ( 'NONE',  ( 1.000000000000000000, 0.0000000000000000000, 0.0000000000000000000 ) ) ;
#66 = PRODUCT_DEFINITION ( 'UNKNOWN', '', #76, #145 ) ;
#67 = CIRCLE ( 'NONE', #22, 219.8000000000000100 ) ;
#68 = AXIS2_PLACEMENT_3D ( 'NONE', #103, #128, #65 ) ;
#69 = PRODUCT ( '690DDR400', '690DDR400', '', ( #75 ) ) ;
#70 = ORIENTED_EDGE ( 'NONE', *, *, #134, .F. ) ;
#71 = CARTESIAN_POINT ( 'NONE',  ( 0.0000000000000000000, 0.0000000000000000000, 0.0000000000000000000 ) ) ;
#72 = FILL_AREA_STYLE_COLOUR ( '', #10 ) ;
#73 = PRODUCT_DEFINITION_SHAPE ( 'NONE', 'NONE',  #66 ) ;
#74 = CARTESIAN_POINT ( 'NONE',  ( -219.8000000000000100, 2.691773664525882500E-014, 0.0000000000000000000 ) ) ;
#75 = PRODUCT_CONTEXT ( 'NONE', #16, 'mechanical' ) ;
#76 = PRODUCT_DEFINITION_FORMATION_WITH_SPECIFIED_SOURCE ( 'ANY', '', #69, .NOT_KNOWN. ) ;
#77 = VERTEX_POINT ( 'NONE', #74 ) ;
#78 = UNCERTAINTY_MEASURE_WITH_UNIT (LENGTH_MEASURE( 1.000000000000000100E-005 ), #139, 'distance_accuracy_value', 'NONE');
#79 = CARTESIAN_POINT ( 'NONE',  ( 0.0000000000000000000, 0.0000000000000000000, 0.0000000000000000000 ) ) ;
#80 = AXIS2_PLACEMENT_3D ( 'NONE', #79, #14, #96 ) ;
#81 = ORIENTED_EDGE ( 'NONE', *, *, #108, .T. ) ;
#82 = SHAPE_DEFINITION_REPRESENTATION ( #73, #47 ) ;
#83 = ORIENTED_EDGE ( 'NONE', *, *, #143, .F. ) ;
#84 = PRODUCT_RELATED_PRODUCT_CATEGORY ( 'part', '', ( #69 ) ) ;
#85 = CARTESIAN_POINT ( 'NONE',  ( 0.0000000000000000000, 0.0000000000000000000, 0.0000000000000000000 ) ) ;
#86 = DIRECTION ( 'NONE',  ( -0.0000000000000000000, -0.0000000000000000000, 1.000000000000000000 ) ) ;
#87 = CARTESIAN_POINT ( 'NONE',  ( 0.0000000000000000000, 0.0000000000000000000, 0.0000000000000000000 ) ) ;
#88 = STYLED_ITEM ( 'NONE', ( #119 ), #132 ) ;
#89 = CLOSED_SHELL ( 'NONE', ( #32, #146, #9, #49 ) ) ;
#90 = APPLICATION_PROTOCOL_DEFINITION ( 'draft international standard', 'automotive_design', 1998, #7 ) ;
#91 = ORIENTED_EDGE ( 'NONE', *, *, #117, .F. ) ;
#92 = EDGE_CURVE ( 'NONE', #77, #154, #67, .T. ) ;
#93 = CIRCLE ( 'NONE', #80, 219.8000000000000100 ) ;
#94 = PRESENTATION_LAYER_ASSIGNMENT (  '', '', ( #88 ) ) ;
#95 = CIRCLE ( 'NONE', #61, 1.000000000000001300 ) ;
#96 = DIRECTION ( 'NONE',  ( 1.000000000000000000, 0.0000000000000000000, 0.0000000000000000000 ) ) ;
#97 = CARTESIAN_POINT ( 'NONE',  ( 217.8000000000000100, 0.0000000000000000000, -1.224646799147355400E-016 ) ) ;
#98 = CARTESIAN_POINT ( 'NONE',  ( 0.0000000000000000000, 0.0000000000000000000, 0.0000000000000000000 ) ) ;
#99 = CARTESIAN_POINT ( 'NONE',  ( 0.0000000000000000000, 0.0000000000000000000, 0.0000000000000000000 ) ) ;
#100 = FILL_AREA_STYLE ('',( #72 ) ) ;
#101 = FACE_OUTER_BOUND ( 'NONE', #13, .T. ) ;
#102 = EDGE_CURVE ( 'NONE', #77, #37, #31, .T. ) ;
#103 = CARTESIAN_POINT ( 'NONE',  ( 0.0000000000000000000, 0.0000000000000000000, -1.224646799147354900E-016 ) ) ;
#104 = MECHANICAL_DESIGN_GEOMETRIC_PRESENTATION_REPRESENTATION (  '', ( #88 ), #113 ) ;
#105 = UNCERTAINTY_MEASURE_WITH_UNIT (LENGTH_MEASURE( 1.000000000000000100E-005 ), #50, 'distance_accuracy_value', 'NONE');
#106 = ORIENTED_EDGE ( 'NONE', *, *, #126, .T. ) ;
#107 = EDGE_LOOP ( 'NONE', ( #133, #110, #54, #17 ) ) ;
#108 = EDGE_CURVE ( 'NONE', #154, #148, #95, .T. ) ;
#109 = FILL_AREA_STYLE ('',( #122 ) ) ;
#110 = ORIENTED_EDGE ( 'NONE', *, *, #157, .F. ) ;
#111 = DIRECTION ( 'NONE',  ( -0.0000000000000000000, -0.0000000000000000000, 1.000000000000000000 ) ) ;
#112 = DIRECTION ( 'NONE',  ( 1.000000000000000000, 0.0000000000000000000, 0.0000000000000000000 ) ) ;
#113 =( GEOMETRIC_REPRESENTATION_CONTEXT ( 3 ) GLOBAL_UNCERTAINTY_ASSIGNED_CONTEXT ( ( #105 ) ) GLOBAL_UNIT_ASSIGNED_CONTEXT ( ( #50, #135, #58 ) ) REPRESENTATION_CONTEXT ( 'NONE', 'WORKASPACE' ) );
#114 = SURFACE_STYLE_USAGE ( .BOTH. , #27 ) ;
#115 = EDGE_LOOP ( 'NONE', ( #43, #106, #20, #70 ) ) ;
#116 = ORIENTED_EDGE ( 'NONE', *, *, #126, .F. ) ;
#117 = EDGE_CURVE ( 'NONE', #37, #148, #125, .T. ) ;
#118 = AXIS2_PLACEMENT_3D ( 'NONE', #25, #111, #36 ) ;
#119 = PRESENTATION_STYLE_ASSIGNMENT (( #120 ) ) ;
#120 = SURFACE_STYLE_USAGE ( .BOTH. , #35 ) ;
#121 = CARTESIAN_POINT ( 'NONE',  ( 218.8000000000000100, 0.0000000000000000000, 0.0000000000000000000 ) ) ;
#122 = FILL_AREA_STYLE_COLOUR ( '', #3 ) ;
#123 = DIRECTION ( 'NONE',  ( 1.224646799147353200E-016, 1.000000000000000000, 0.0000000000000000000 ) ) ;
#124 =( NAMED_UNIT ( * ) PLANE_ANGLE_UNIT ( ) SI_UNIT ( $, .RADIAN. ) );
#125 = CIRCLE ( 'NONE', #68, 217.8000000000000100 ) ;
#126 = EDGE_CURVE ( 'NONE', #154, #77, #93, .T. ) ;
#127 = CARTESIAN_POINT ( 'NONE',  ( -218.8000000000000100, 2.679527196534409000E-014, 0.0000000000000000000 ) ) ;
#128 = DIRECTION ( 'NONE',  ( -0.0000000000000000000, -0.0000000000000000000, 1.000000000000000000 ) ) ;
#129 = AXIS2_PLACEMENT_3D ( 'NONE', #121, #51, #137 ) ;
#130 = FACE_OUTER_BOUND ( 'NONE', #107, .T. ) ;
#131 = PRESENTATION_STYLE_ASSIGNMENT (( #114 ) ) ;
#132 = MANIFOLD_SOLID_BREP ( 'Rotation1', #89 ) ;
#133 = ORIENTED_EDGE ( 'NONE', *, *, #92, .F. ) ;
#134 = EDGE_CURVE ( 'NONE', #148, #37, #48, .T. ) ;
#135 =( NAMED_UNIT ( * ) PLANE_ANGLE_UNIT ( ) SI_UNIT ( $, .RADIAN. ) );
#136 = CARTESIAN_POINT ( 'NONE',  ( -217.8000000000000100, 2.667280728542935800E-014, -1.224646799147355400E-016 ) ) ;
#137 = DIRECTION ( 'NONE',  ( 0.0000000000000000000, 0.0000000000000000000, -1.000000000000000000 ) ) ;
#138 = DIRECTION ( 'NONE',  ( 1.000000000000000000, 0.0000000000000000000, 0.0000000000000000000 ) ) ;
#139 =( LENGTH_UNIT ( ) NAMED_UNIT ( * ) SI_UNIT ( .MILLI., .METRE. ) );
#140 = AXIS2_PLACEMENT_3D ( 'NONE', #40, #123, #52 ) ;
#141 = ORIENTED_EDGE ( 'NONE', *, *, #102, .F. ) ;
#142 = ORIENTED_EDGE ( 'NONE', *, *, #157, .T. ) ;
#143 = EDGE_CURVE ( 'NONE', #148, #154, #29, .T. ) ;
#144 = TOROIDAL_SURFACE ( 'NONE', #147, 218.8000000000000100, 1.000000000000001300 ) ;
#145 = PRODUCT_DEFINITION_CONTEXT ( 'detailed design', #7, 'design' ) ;
#146 = ADVANCED_FACE ( 'NONE', ( #18 ), #144, .T. ) ;
#147 = AXIS2_PLACEMENT_3D ( 'NONE', #85, #60, #150 ) ;
#148 = VERTEX_POINT ( 'NONE', #97 ) ;
#149 = DIRECTION ( 'NONE',  ( -0.0000000000000000000, -0.0000000000000000000, 1.000000000000000000 ) ) ;
#150 = DIRECTION ( 'NONE',  ( 1.000000000000000000, 0.0000000000000000000, 0.0000000000000000000 ) ) ;
#151 =( NAMED_UNIT ( * ) SI_UNIT ( $, .STERADIAN. ) SOLID_ANGLE_UNIT ( ) );
#152 = CARTESIAN_POINT ( 'NONE',  ( 218.8000000000000100, 0.0000000000000000000, 0.0000000000000000000 ) ) ;
#153 = DIRECTION ( 'NONE',  ( 1.000000000000000000, 0.0000000000000000000, 0.0000000000000000000 ) ) ;
#154 = VERTEX_POINT ( 'NONE', #5 ) ;
#155 = DIRECTION ( 'NONE',  ( 1.224646799147353200E-016, 1.000000000000000000, 0.0000000000000000000 ) ) ;
#156 = DIRECTION ( 'NONE',  ( 0.0000000000000000000, 0.0000000000000000000, -1.000000000000000000 ) ) ;
#157 = EDGE_CURVE ( 'NONE', #37, #77, #15, .T. ) ;
#158 = DIRECTION ( 'NONE',  ( -1.000000000000000000, 1.224646799147349500E-016, 0.0000000000000000000 ) ) ;
ENDSEC;
END-ISO-10303-21;
