ISO-10303-21;
HEADER;
FILE_DESCRIPTION (( 'STEP AP214' ),
    '1' );
FILE_NAME ('104DOR016-S1.step',
    '2017-07-06T09:24:57',
    ( 'install' ),
    ( '' ),
    'SwSTEP 2.0',
    'SolidWorks 2015',
    '' );
FILE_SCHEMA (( 'AUTOMOTIVE_DESIGN' ));
ENDSEC;

DATA;
#1 = DIRECTION ( 'NONE',  ( -1.000000000000000000, 1.224646799147353500E-016, 0.0000000000000000000 ) ) ;
#2 = FILL_AREA_STYLE_COLOUR ( '', #52 ) ;
#3 = UNCERTAINTY_MEASURE_WITH_UNIT (LENGTH_MEASURE( 1.000000000000000100E-005 ), #141, 'distance_accuracy_value', 'NONE');
#4 = TOROIDAL_SURFACE ( 'NONE', #33, 11.49999999999999600, 2.499999999999998700 ) ;
#5 = TOROIDAL_SURFACE ( 'NONE', #148, 11.49999999999999600, 2.499999999999998700 ) ;
#6 = PRESENTATION_STYLE_ASSIGNMENT (( #135 ) ) ;
#7 = CARTESIAN_POINT ( 'NONE',  ( -11.49999999999999600, 1.408343819019455800E-015, 0.0000000000000000000 ) ) ;
#8 = STYLED_ITEM ( 'NONE', ( #6 ), #123 ) ;
#9 = DIRECTION ( 'NONE',  ( -0.0000000000000000000, -0.0000000000000000000, 1.000000000000000000 ) ) ;
#10 = EDGE_CURVE ( 'NONE', #109, #157, #65, .T. ) ;
#11 = EDGE_LOOP ( 'NONE', ( #75, #73, #86, #14 ) ) ;
#12 = AXIS2_PLACEMENT_3D ( 'NONE', #93, #72, #55 ) ;
#13 = ORIENTED_EDGE ( 'NONE', *, *, #99, .F. ) ;
#14 = ORIENTED_EDGE ( 'NONE', *, *, #107, .T. ) ;
#15 = ORIENTED_EDGE ( 'NONE', *, *, #99, .T. ) ;
#16 = PRESENTATION_LAYER_ASSIGNMENT (  '', '', ( #8 ) ) ;
#17 =( NAMED_UNIT ( * ) PLANE_ANGLE_UNIT ( ) SI_UNIT ( $, .RADIAN. ) );
#18 = CARTESIAN_POINT ( 'NONE',  ( 0.0000000000000000000, 0.0000000000000000000, 0.0000000000000000000 ) ) ;
#19 = CARTESIAN_POINT ( 'NONE',  ( 8.999999999999998200, 0.0000000000000000000, -3.061616997868381700E-016 ) ) ;
#20 = DIRECTION ( 'NONE',  ( -1.000000000000000000, 1.224646799147353500E-016, 0.0000000000000000000 ) ) ;
#21 = DIRECTION ( 'NONE',  ( -0.0000000000000000000, -0.0000000000000000000, 1.000000000000000000 ) ) ;
#22 =( NAMED_UNIT ( * ) SI_UNIT ( $, .STERADIAN. ) SOLID_ANGLE_UNIT ( ) );
#23 = MECHANICAL_DESIGN_GEOMETRIC_PRESENTATION_REPRESENTATION (  '', ( #8 ), #31 ) ;
#24 =( LENGTH_UNIT ( ) NAMED_UNIT ( * ) SI_UNIT ( .MILLI., .METRE. ) );
#25 = SURFACE_STYLE_FILL_AREA ( #101 ) ;
#26 = VERTEX_POINT ( 'NONE', #106 ) ;
#27 = CIRCLE ( 'NONE', #117, 8.999999999999998200 ) ;
#28 = TOROIDAL_SURFACE ( 'NONE', #42, 11.49999999999999600, 2.499999999999998700 ) ;
#29 = DIRECTION ( 'NONE',  ( 1.000000000000000000, 0.0000000000000000000, 0.0000000000000000000 ) ) ;
#30 = CIRCLE ( 'NONE', #53, 2.499999999999998700 ) ;
#31 =( GEOMETRIC_REPRESENTATION_CONTEXT ( 3 ) GLOBAL_UNCERTAINTY_ASSIGNED_CONTEXT ( ( #102 ) ) GLOBAL_UNIT_ASSIGNED_CONTEXT ( ( #100, #17, #110 ) ) REPRESENTATION_CONTEXT ( 'NONE', 'WORKASPACE' ) );
#32 = CARTESIAN_POINT ( 'NONE',  ( -11.49999999999999600, 1.408343819019455800E-015, 0.0000000000000000000 ) ) ;
#33 = AXIS2_PLACEMENT_3D ( 'NONE', #64, #125, #131 ) ;
#34 = DIRECTION ( 'NONE',  ( 1.000000000000000000, 0.0000000000000000000, 0.0000000000000000000 ) ) ;
#35 = DIRECTION ( 'NONE',  ( 0.0000000000000000000, -1.000000000000000000, 0.0000000000000000000 ) ) ;
#36 = ADVANCED_FACE ( 'NONE', ( #69 ), #4, .T. ) ;
#37 = CIRCLE ( 'NONE', #112, 2.499999999999998700 ) ;
#38 = ADVANCED_FACE ( 'NONE', ( #54 ), #28, .T. ) ;
#39 = CIRCLE ( 'NONE', #126, 2.499999999999998700 ) ;
#40 = ORIENTED_EDGE ( 'NONE', *, *, #122, .T. ) ;
#41 = DIRECTION ( 'NONE',  ( -0.0000000000000000000, -0.0000000000000000000, 1.000000000000000000 ) ) ;
#42 = AXIS2_PLACEMENT_3D ( 'NONE', #62, #21, #29 ) ;
#43 = DIRECTION ( 'NONE',  ( -0.0000000000000000000, -0.0000000000000000000, 1.000000000000000000 ) ) ;
#44 =( NAMED_UNIT ( * ) PLANE_ANGLE_UNIT ( ) SI_UNIT ( $, .RADIAN. ) );
#45 = SURFACE_STYLE_FILL_AREA ( #77 ) ;
#46 = EDGE_CURVE ( 'NONE', #139, #26, #59, .T. ) ;
#47 = PRODUCT_CONTEXT ( 'NONE', #88, 'mechanical' ) ;
#48 = DIRECTION ( 'NONE',  ( 0.0000000000000000000, -1.000000000000000000, 0.0000000000000000000 ) ) ;
#49 = FACE_OUTER_BOUND ( 'NONE', #11, .T. ) ;
#50 = TOROIDAL_SURFACE ( 'NONE', #74, 11.49999999999999600, 2.499999999999998700 ) ;
#51 = EDGE_CURVE ( 'NONE', #157, #26, #30, .T. ) ;
#52 = COLOUR_RGB ( '',0.6980392156862744700, 0.6980392156862744700, 0.6980392156862744700 ) ;
#53 = AXIS2_PLACEMENT_3D ( 'NONE', #32, #115, #20 ) ;
#54 = FACE_OUTER_BOUND ( 'NONE', #129, .T. ) ;
#55 = DIRECTION ( 'NONE',  ( 1.000000000000000000, 0.0000000000000000000, 0.0000000000000000000 ) ) ;
#56 = SHAPE_DEFINITION_REPRESENTATION ( #113, #123 ) ;
#57 = CARTESIAN_POINT ( 'NONE',  ( 0.0000000000000000000, 0.0000000000000000000, -3.061616997868381700E-016 ) ) ;
#58 = SURFACE_STYLE_USAGE ( .BOTH. , #149 ) ;
#59 = CIRCLE ( 'NONE', #12, 13.99999999999999500 ) ;
#60 = AXIS2_PLACEMENT_3D ( 'NONE', #96, #121, #34 ) ;
#61 = UNCERTAINTY_MEASURE_WITH_UNIT (LENGTH_MEASURE( 1.000000000000000100E-005 ), #24, 'distance_accuracy_value', 'NONE');
#62 = CARTESIAN_POINT ( 'NONE',  ( 0.0000000000000000000, 0.0000000000000000000, 0.0000000000000000000 ) ) ;
#63 = STYLED_ITEM ( 'NONE', ( #111 ), #78 ) ;
#64 = CARTESIAN_POINT ( 'NONE',  ( 0.0000000000000000000, 0.0000000000000000000, 0.0000000000000000000 ) ) ;
#65 = CIRCLE ( 'NONE', #158, 8.999999999999998200 ) ;
#66 = APPLICATION_PROTOCOL_DEFINITION ( 'draft international standard', 'automotive_design', 1998, #88 ) ;
#67 = DIRECTION ( 'NONE',  ( 0.0000000000000000000, 0.0000000000000000000, -1.000000000000000000 ) ) ;
#68 = DIRECTION ( 'NONE',  ( 0.0000000000000000000, 0.0000000000000000000, -1.000000000000000000 ) ) ;
#69 = FACE_OUTER_BOUND ( 'NONE', #91, .T. ) ;
#70 = PRODUCT_DEFINITION ( 'UNKNOWN', '', #81, #137 ) ;
#71 = ADVANCED_FACE ( 'NONE', ( #49 ), #50, .T. ) ;
#72 = DIRECTION ( 'NONE',  ( -0.0000000000000000000, -0.0000000000000000000, 1.000000000000000000 ) ) ;
#73 = ORIENTED_EDGE ( 'NONE', *, *, #51, .F. ) ;
#74 = AXIS2_PLACEMENT_3D ( 'NONE', #128, #41, #105 ) ;
#75 = ORIENTED_EDGE ( 'NONE', *, *, #151, .F. ) ;
#76 = CARTESIAN_POINT ( 'NONE',  ( 13.99999999999999500, 0.0000000000000000000, 0.0000000000000000000 ) ) ;
#77 = FILL_AREA_STYLE ('',( #2 ) ) ;
#78 = MANIFOLD_SOLID_BREP ( 'Rotation1', #130 ) ;
#79 = DIRECTION ( 'NONE',  ( 1.000000000000000000, 0.0000000000000000000, 0.0000000000000000000 ) ) ;
#80 = CARTESIAN_POINT ( 'NONE',  ( 11.49999999999999600, 0.0000000000000000000, 0.0000000000000000000 ) ) ;
#81 = PRODUCT_DEFINITION_FORMATION_WITH_SPECIFIED_SOURCE ( 'ANY', '', #114, .NOT_KNOWN. ) ;
#82 = ORIENTED_EDGE ( 'NONE', *, *, #10, .F. ) ;
#83 = ORIENTED_EDGE ( 'NONE', *, *, #103, .F. ) ;
#84 = PRESENTATION_LAYER_ASSIGNMENT (  '', '', ( #63 ) ) ;
#85 = EDGE_LOOP ( 'NONE', ( #147, #152, #15, #82 ) ) ;
#86 = ORIENTED_EDGE ( 'NONE', *, *, #103, .T. ) ;
#87 = FACE_OUTER_BOUND ( 'NONE', #85, .T. ) ;
#88 = APPLICATION_CONTEXT ( 'automotive_design' ) ;
#89 = ORIENTED_EDGE ( 'NONE', *, *, #46, .F. ) ;
#90 = DIRECTION ( 'NONE',  ( 1.224646799147353200E-016, 1.000000000000000000, 0.0000000000000000000 ) ) ;
#91 = EDGE_LOOP ( 'NONE', ( #13, #97, #40, #83 ) ) ;
#92 = PRODUCT_RELATED_PRODUCT_CATEGORY ( 'part', '', ( #114 ) ) ;
#93 = CARTESIAN_POINT ( 'NONE',  ( 0.0000000000000000000, 0.0000000000000000000, 0.0000000000000000000 ) ) ;
#94 = MECHANICAL_DESIGN_GEOMETRIC_PRESENTATION_REPRESENTATION (  '', ( #63 ), #104 ) ;
#95 = CIRCLE ( 'NONE', #136, 2.499999999999998700 ) ;
#96 = CARTESIAN_POINT ( 'NONE',  ( 0.0000000000000000000, 0.0000000000000000000, 0.0000000000000000000 ) ) ;
#97 = ORIENTED_EDGE ( 'NONE', *, *, #151, .T. ) ;
#98 =( NAMED_UNIT ( * ) PLANE_ANGLE_UNIT ( ) SI_UNIT ( $, .RADIAN. ) );
#99 = EDGE_CURVE ( 'NONE', #26, #157, #37, .T. ) ;
#100 =( LENGTH_UNIT ( ) NAMED_UNIT ( * ) SI_UNIT ( .MILLI., .METRE. ) );
#101 = FILL_AREA_STYLE ('',( #133 ) ) ;
#102 = UNCERTAINTY_MEASURE_WITH_UNIT (LENGTH_MEASURE( 1.000000000000000100E-005 ), #100, 'distance_accuracy_value', 'NONE');
#103 = EDGE_CURVE ( 'NONE', #157, #109, #27, .T. ) ;
#104 =( GEOMETRIC_REPRESENTATION_CONTEXT ( 3 ) GLOBAL_UNCERTAINTY_ASSIGNED_CONTEXT ( ( #3 ) ) GLOBAL_UNIT_ASSIGNED_CONTEXT ( ( #141, #44, #127 ) ) REPRESENTATION_CONTEXT ( 'NONE', 'WORKASPACE' ) );
#105 = DIRECTION ( 'NONE',  ( 1.000000000000000000, 0.0000000000000000000, 0.0000000000000000000 ) ) ;
#106 = CARTESIAN_POINT ( 'NONE',  ( -13.99999999999999500, 1.714505518806294200E-015, 0.0000000000000000000 ) ) ;
#107 = EDGE_CURVE ( 'NONE', #109, #139, #39, .T. ) ;
#108 = ORIENTED_EDGE ( 'NONE', *, *, #51, .T. ) ;
#109 = VERTEX_POINT ( 'NONE', #19 ) ;
#110 =( NAMED_UNIT ( * ) SI_UNIT ( $, .STERADIAN. ) SOLID_ANGLE_UNIT ( ) );
#111 = PRESENTATION_STYLE_ASSIGNMENT (( #58 ) ) ;
#112 = AXIS2_PLACEMENT_3D ( 'NONE', #7, #90, #1 ) ;
#113 = PRODUCT_DEFINITION_SHAPE ( 'NONE', 'NONE',  #70 ) ;
#114 = PRODUCT ( '104DOR016-S1', '104DOR016-S1', '', ( #47 ) ) ;
#115 = DIRECTION ( 'NONE',  ( 1.224646799147353200E-016, 1.000000000000000000, 0.0000000000000000000 ) ) ;
#116 = CARTESIAN_POINT ( 'NONE',  ( 0.0000000000000000000, 0.0000000000000000000, -3.061616997868381700E-016 ) ) ;
#117 = AXIS2_PLACEMENT_3D ( 'NONE', #57, #140, #124 ) ;
#118 = APPLICATION_CONTEXT ( 'automotive_design' ) ;
#119 = CARTESIAN_POINT ( 'NONE',  ( -8.999999999999998200, 1.102182119232617500E-015, -3.061616997868381700E-016 ) ) ;
#120 = DIRECTION ( 'NONE',  ( 1.000000000000000000, 0.0000000000000000000, 0.0000000000000000000 ) ) ;
#121 = DIRECTION ( 'NONE',  ( 0.0000000000000000000, 0.0000000000000000000, 1.000000000000000000 ) ) ;
#122 = EDGE_CURVE ( 'NONE', #139, #109, #95, .T. ) ;
#123 = ADVANCED_BREP_SHAPE_REPRESENTATION ( '104DOR016-S1', ( #78, #60 ), #155 ) ;
#124 = DIRECTION ( 'NONE',  ( 1.000000000000000000, 0.0000000000000000000, 0.0000000000000000000 ) ) ;
#125 = DIRECTION ( 'NONE',  ( -0.0000000000000000000, -0.0000000000000000000, 1.000000000000000000 ) ) ;
#126 = AXIS2_PLACEMENT_3D ( 'NONE', #80, #48, #67 ) ;
#127 =( NAMED_UNIT ( * ) SI_UNIT ( $, .STERADIAN. ) SOLID_ANGLE_UNIT ( ) );
#128 = CARTESIAN_POINT ( 'NONE',  ( 0.0000000000000000000, 0.0000000000000000000, 0.0000000000000000000 ) ) ;
#129 = EDGE_LOOP ( 'NONE', ( #89, #153, #142, #108 ) ) ;
#130 = CLOSED_SHELL ( 'NONE', ( #36, #138, #38, #71 ) ) ;
#131 = DIRECTION ( 'NONE',  ( 1.000000000000000000, 0.0000000000000000000, 0.0000000000000000000 ) ) ;
#132 = APPLICATION_PROTOCOL_DEFINITION ( 'draft international standard', 'automotive_design', 1998, #118 ) ;
#133 = FILL_AREA_STYLE_COLOUR ( '', #156 ) ;
#134 = DIRECTION ( 'NONE',  ( -0.0000000000000000000, -0.0000000000000000000, 1.000000000000000000 ) ) ;
#135 = SURFACE_STYLE_USAGE ( .BOTH. , #154 ) ;
#136 = AXIS2_PLACEMENT_3D ( 'NONE', #145, #35, #68 ) ;
#137 = PRODUCT_DEFINITION_CONTEXT ( 'detailed design', #118, 'design' ) ;
#138 = ADVANCED_FACE ( 'NONE', ( #87 ), #5, .T. ) ;
#139 = VERTEX_POINT ( 'NONE', #76 ) ;
#140 = DIRECTION ( 'NONE',  ( -0.0000000000000000000, -0.0000000000000000000, 1.000000000000000000 ) ) ;
#141 =( LENGTH_UNIT ( ) NAMED_UNIT ( * ) SI_UNIT ( .MILLI., .METRE. ) );
#142 = ORIENTED_EDGE ( 'NONE', *, *, #10, .T. ) ;
#143 = CIRCLE ( 'NONE', #144, 13.99999999999999500 ) ;
#144 = AXIS2_PLACEMENT_3D ( 'NONE', #18, #43, #79 ) ;
#145 = CARTESIAN_POINT ( 'NONE',  ( 11.49999999999999600, 0.0000000000000000000, 0.0000000000000000000 ) ) ;
#146 = CARTESIAN_POINT ( 'NONE',  ( 0.0000000000000000000, 0.0000000000000000000, 0.0000000000000000000 ) ) ;
#147 = ORIENTED_EDGE ( 'NONE', *, *, #122, .F. ) ;
#148 = AXIS2_PLACEMENT_3D ( 'NONE', #146, #134, #120 ) ;
#149 = SURFACE_SIDE_STYLE ('',( #45 ) ) ;
#150 = DIRECTION ( 'NONE',  ( 1.000000000000000000, 0.0000000000000000000, 0.0000000000000000000 ) ) ;
#151 = EDGE_CURVE ( 'NONE', #26, #139, #143, .T. ) ;
#152 = ORIENTED_EDGE ( 'NONE', *, *, #46, .T. ) ;
#153 = ORIENTED_EDGE ( 'NONE', *, *, #107, .F. ) ;
#154 = SURFACE_SIDE_STYLE ('',( #25 ) ) ;
#155 =( GEOMETRIC_REPRESENTATION_CONTEXT ( 3 ) GLOBAL_UNCERTAINTY_ASSIGNED_CONTEXT ( ( #61 ) ) GLOBAL_UNIT_ASSIGNED_CONTEXT ( ( #24, #98, #22 ) ) REPRESENTATION_CONTEXT ( 'NONE', 'WORKASPACE' ) );
#156 = COLOUR_RGB ( '',0.6980392156862744700, 0.6980392156862744700, 0.6980392156862744700 ) ;
#157 = VERTEX_POINT ( 'NONE', #119 ) ;
#158 = AXIS2_PLACEMENT_3D ( 'NONE', #116, #9, #150 ) ;
ENDSEC;
END-ISO-10303-21;
