ISO-10303-21;
HEADER;
FILE_DESCRIPTION (( 'STEP AP214' ),
    '1' );
FILE_NAME ('103DOR050-S1.step',
    '2017-07-06T09:25:07',
    ( 'install' ),
    ( '' ),
    'SwSTEP 2.0',
    'SolidWorks 2015',
    '' );
FILE_SCHEMA (( 'AUTOMOTIVE_DESIGN' ));
ENDSEC;

DATA;
#1 = PRODUCT_RELATED_PRODUCT_CATEGORY ( 'part', '', ( #148 ) ) ;
#2 = DIRECTION ( 'NONE',  ( 0.0000000000000000000, 0.0000000000000000000, 1.000000000000000000 ) ) ;
#3 = ORIENTED_EDGE ( 'NONE', *, *, #23, .F. ) ;
#4 = CARTESIAN_POINT ( 'NONE',  ( 29.33500000000000400, 0.0000000000000000000, 0.0000000000000000000 ) ) ;
#5 = AXIS2_PLACEMENT_3D ( 'NONE', #20, #86, #126 ) ;
#6 = DIRECTION ( 'NONE',  ( -0.0000000000000000000, -0.0000000000000000000, 1.000000000000000000 ) ) ;
#7 = VERTEX_POINT ( 'NONE', #118 ) ;
#8 = FILL_AREA_STYLE_COLOUR ( '', #80 ) ;
#9 = EDGE_CURVE ( 'NONE', #62, #40, #90, .T. ) ;
#10 = AXIS2_PLACEMENT_3D ( 'NONE', #68, #96, #38 ) ;
#11 = SHAPE_DEFINITION_REPRESENTATION ( #66, #50 ) ;
#12 =( NAMED_UNIT ( * ) SI_UNIT ( $, .STERADIAN. ) SOLID_ANGLE_UNIT ( ) );
#13 = CARTESIAN_POINT ( 'NONE',  ( 0.0000000000000000000, 0.0000000000000000000, 0.0000000000000000000 ) ) ;
#14 = DIRECTION ( 'NONE',  ( 0.0000000000000000000, -1.000000000000000000, 0.0000000000000000000 ) ) ;
#15 = DIRECTION ( 'NONE',  ( 1.000000000000000000, 0.0000000000000000000, 0.0000000000000000000 ) ) ;
#16 = DIRECTION ( 'NONE',  ( -0.0000000000000000000, -0.0000000000000000000, 1.000000000000000000 ) ) ;
#17 = AXIS2_PLACEMENT_3D ( 'NONE', #134, #55, #129 ) ;
#18 = CIRCLE ( 'NONE', #107, 32.00000000000000700 ) ;
#19 = UNCERTAINTY_MEASURE_WITH_UNIT (LENGTH_MEASURE( 1.000000000000000100E-005 ), #94, 'distance_accuracy_value', 'NONE');
#20 = CARTESIAN_POINT ( 'NONE',  ( 0.0000000000000000000, 0.0000000000000000000, 0.0000000000000000000 ) ) ;
#21 = CIRCLE ( 'NONE', #54, 32.00000000000000700 ) ;
#22 = ORIENTED_EDGE ( 'NONE', *, *, #121, .T. ) ;
#23 = EDGE_CURVE ( 'NONE', #40, #62, #133, .T. ) ;
#24 = FACE_OUTER_BOUND ( 'NONE', #157, .T. ) ;
#25 = FILL_AREA_STYLE_COLOUR ( '', #111 ) ;
#26 = DIRECTION ( 'NONE',  ( -0.0000000000000000000, -0.0000000000000000000, 1.000000000000000000 ) ) ;
#27 = DIRECTION ( 'NONE',  ( 0.0000000000000000000, 0.0000000000000000000, -1.000000000000000000 ) ) ;
#28 = CARTESIAN_POINT ( 'NONE',  ( -29.33500000000000400, 3.592501385298761000E-015, 0.0000000000000000000 ) ) ;
#29 = STYLED_ITEM ( 'NONE', ( #104 ), #155 ) ;
#30 = SURFACE_STYLE_FILL_AREA ( #87 ) ;
#31 = UNCERTAINTY_MEASURE_WITH_UNIT (LENGTH_MEASURE( 1.000000000000000100E-005 ), #46, 'distance_accuracy_value', 'NONE');
#32 = TOROIDAL_SURFACE ( 'NONE', #17, 29.33500000000000400, 2.665000000000001800 ) ;
#33 = EDGE_CURVE ( 'NONE', #125, #7, #84, .T. ) ;
#34 = PRESENTATION_LAYER_ASSIGNMENT (  '', '', ( #29 ) ) ;
#35 = CARTESIAN_POINT ( 'NONE',  ( 0.0000000000000000000, 0.0000000000000000000, 0.0000000000000000000 ) ) ;
#36 = ORIENTED_EDGE ( 'NONE', *, *, #59, .T. ) ;
#37 = APPLICATION_PROTOCOL_DEFINITION ( 'draft international standard', 'automotive_design', 1998, #116 ) ;
#38 = DIRECTION ( 'NONE',  ( -1.000000000000000000, 1.224646799147353000E-016, 0.0000000000000000000 ) ) ;
#39 =( NAMED_UNIT ( * ) PLANE_ANGLE_UNIT ( ) SI_UNIT ( $, .RADIAN. ) );
#40 = VERTEX_POINT ( 'NONE', #101 ) ;
#41 = DIRECTION ( 'NONE',  ( -1.000000000000000000, 1.224646799147353000E-016, 0.0000000000000000000 ) ) ;
#42 = MECHANICAL_DESIGN_GEOMETRIC_PRESENTATION_REPRESENTATION (  '', ( #29 ), #47 ) ;
#43 = ORIENTED_EDGE ( 'NONE', *, *, #132, .T. ) ;
#44 = DIRECTION ( 'NONE',  ( 1.000000000000000000, 0.0000000000000000000, 0.0000000000000000000 ) ) ;
#45 = PRODUCT_CONTEXT ( 'NONE', #144, 'mechanical' ) ;
#46 =( LENGTH_UNIT ( ) NAMED_UNIT ( * ) SI_UNIT ( .MILLI., .METRE. ) );
#47 =( GEOMETRIC_REPRESENTATION_CONTEXT ( 3 ) GLOBAL_UNCERTAINTY_ASSIGNED_CONTEXT ( ( #31 ) ) GLOBAL_UNIT_ASSIGNED_CONTEXT ( ( #46, #88, #142 ) ) REPRESENTATION_CONTEXT ( 'NONE', 'WORKASPACE' ) );
#48 = TOROIDAL_SURFACE ( 'NONE', #137, 29.33500000000000400, 2.665000000000001800 ) ;
#49 = EDGE_LOOP ( 'NONE', ( #139, #36, #114, #93 ) ) ;
#50 = ADVANCED_BREP_SHAPE_REPRESENTATION ( '103DOR050-S1', ( #155, #128 ), #64 ) ;
#51 = EDGE_CURVE ( 'NONE', #62, #125, #135, .T. ) ;
#52 = UNCERTAINTY_MEASURE_WITH_UNIT (LENGTH_MEASURE( 1.000000000000000100E-005 ), #115, 'distance_accuracy_value', 'NONE');
#53 = TOROIDAL_SURFACE ( 'NONE', #5, 29.33500000000000400, 2.665000000000001800 ) ;
#54 = AXIS2_PLACEMENT_3D ( 'NONE', #35, #67, #44 ) ;
#55 = DIRECTION ( 'NONE',  ( -0.0000000000000000000, -0.0000000000000000000, 1.000000000000000000 ) ) ;
#56 = SURFACE_SIDE_STYLE ('',( #79 ) ) ;
#57 = DIRECTION ( 'NONE',  ( 0.0000000000000000000, -1.000000000000000000, 0.0000000000000000000 ) ) ;
#58 = APPLICATION_PROTOCOL_DEFINITION ( 'draft international standard', 'automotive_design', 1998, #144 ) ;
#59 = EDGE_CURVE ( 'NONE', #7, #40, #18, .T. ) ;
#60 = FACE_OUTER_BOUND ( 'NONE', #82, .T. ) ;
#61 = CARTESIAN_POINT ( 'NONE',  ( 0.0000000000000000000, 0.0000000000000000000, -3.263683719727698600E-016 ) ) ;
#62 = VERTEX_POINT ( 'NONE', #120 ) ;
#63 = DIRECTION ( 'NONE',  ( 1.000000000000000000, 0.0000000000000000000, 0.0000000000000000000 ) ) ;
#64 =( GEOMETRIC_REPRESENTATION_CONTEXT ( 3 ) GLOBAL_UNCERTAINTY_ASSIGNED_CONTEXT ( ( #52 ) ) GLOBAL_UNIT_ASSIGNED_CONTEXT ( ( #115, #39, #76 ) ) REPRESENTATION_CONTEXT ( 'NONE', 'WORKASPACE' ) );
#65 = AXIS2_PLACEMENT_3D ( 'NONE', #69, #14, #81 ) ;
#66 = PRODUCT_DEFINITION_SHAPE ( 'NONE', 'NONE',  #136 ) ;
#67 = DIRECTION ( 'NONE',  ( -0.0000000000000000000, -0.0000000000000000000, 1.000000000000000000 ) ) ;
#68 = CARTESIAN_POINT ( 'NONE',  ( -29.33500000000000400, 3.592501385298761000E-015, 0.0000000000000000000 ) ) ;
#69 = CARTESIAN_POINT ( 'NONE',  ( 29.33500000000000400, 0.0000000000000000000, 0.0000000000000000000 ) ) ;
#70 = DIRECTION ( 'NONE',  ( 1.000000000000000000, 0.0000000000000000000, 0.0000000000000000000 ) ) ;
#71 = CARTESIAN_POINT ( 'NONE',  ( 0.0000000000000000000, 0.0000000000000000000, -3.263683719727698600E-016 ) ) ;
#72 = DIRECTION ( 'NONE',  ( 1.000000000000000000, 0.0000000000000000000, 0.0000000000000000000 ) ) ;
#73 = CARTESIAN_POINT ( 'NONE',  ( 0.0000000000000000000, 0.0000000000000000000, 0.0000000000000000000 ) ) ;
#74 = CLOSED_SHELL ( 'NONE', ( #112, #108, #95, #124 ) ) ;
#75 = FACE_OUTER_BOUND ( 'NONE', #109, .T. ) ;
#76 =( NAMED_UNIT ( * ) SI_UNIT ( $, .STERADIAN. ) SOLID_ANGLE_UNIT ( ) );
#77 = ORIENTED_EDGE ( 'NONE', *, *, #59, .F. ) ;
#78 = STYLED_ITEM ( 'NONE', ( #141 ), #50 ) ;
#79 = SURFACE_STYLE_FILL_AREA ( #127 ) ;
#80 = COLOUR_RGB ( '',0.3843137254901960500, 0.3843137254901960500, 0.3843137254901960500 ) ;
#81 = DIRECTION ( 'NONE',  ( 0.0000000000000000000, 0.0000000000000000000, -1.000000000000000000 ) ) ;
#82 = EDGE_LOOP ( 'NONE', ( #77, #145, #22, #158 ) ) ;
#83 = PRESENTATION_LAYER_ASSIGNMENT (  '', '', ( #78 ) ) ;
#84 = CIRCLE ( 'NONE', #123, 2.665000000000004000 ) ;
#85 = FACE_OUTER_BOUND ( 'NONE', #49, .T. ) ;
#86 = DIRECTION ( 'NONE',  ( -0.0000000000000000000, -0.0000000000000000000, 1.000000000000000000 ) ) ;
#87 = FILL_AREA_STYLE ('',( #8 ) ) ;
#88 =( NAMED_UNIT ( * ) PLANE_ANGLE_UNIT ( ) SI_UNIT ( $, .RADIAN. ) );
#89 = SURFACE_SIDE_STYLE ('',( #30 ) ) ;
#90 = CIRCLE ( 'NONE', #113, 2.665000000000001800 ) ;
#91 = CARTESIAN_POINT ( 'NONE',  ( 0.0000000000000000000, 0.0000000000000000000, 0.0000000000000000000 ) ) ;
#92 = MECHANICAL_DESIGN_GEOMETRIC_PRESENTATION_REPRESENTATION (  '', ( #78 ), #97 ) ;
#93 = ORIENTED_EDGE ( 'NONE', *, *, #121, .F. ) ;
#94 =( LENGTH_UNIT ( ) NAMED_UNIT ( * ) SI_UNIT ( .MILLI., .METRE. ) );
#95 = ADVANCED_FACE ( 'NONE', ( #75 ), #48, .T. ) ;
#96 = DIRECTION ( 'NONE',  ( 1.224646799147353200E-016, 1.000000000000000000, 0.0000000000000000000 ) ) ;
#97 =( GEOMETRIC_REPRESENTATION_CONTEXT ( 3 ) GLOBAL_UNCERTAINTY_ASSIGNED_CONTEXT ( ( #19 ) ) GLOBAL_UNIT_ASSIGNED_CONTEXT ( ( #94, #99, #12 ) ) REPRESENTATION_CONTEXT ( 'NONE', 'WORKASPACE' ) );
#98 = CARTESIAN_POINT ( 'NONE',  ( 0.0000000000000000000, 0.0000000000000000000, 0.0000000000000000000 ) ) ;
#99 =( NAMED_UNIT ( * ) PLANE_ANGLE_UNIT ( ) SI_UNIT ( $, .RADIAN. ) );
#100 = DIRECTION ( 'NONE',  ( 1.000000000000000000, 0.0000000000000000000, 0.0000000000000000000 ) ) ;
#101 = CARTESIAN_POINT ( 'NONE',  ( 32.00000000000000700, 0.0000000000000000000, 0.0000000000000000000 ) ) ;
#102 = AXIS2_PLACEMENT_3D ( 'NONE', #61, #147, #72 ) ;
#103 = DIRECTION ( 'NONE',  ( 1.224646799147353200E-016, 1.000000000000000000, 0.0000000000000000000 ) ) ;
#104 = PRESENTATION_STYLE_ASSIGNMENT (( #130 ) ) ;
#105 = DIRECTION ( 'NONE',  ( 1.000000000000000000, 0.0000000000000000000, 0.0000000000000000000 ) ) ;
#106 = CIRCLE ( 'NONE', #10, 2.665000000000004000 ) ;
#108 = ADVANCED_FACE ( 'NONE', ( #24 ), #151, .T. ) ;
#107 = AXIS2_PLACEMENT_3D ( 'NONE', #13, #26, #100 ) ;
#109 = EDGE_LOOP ( 'NONE', ( #119, #152, #143, #122 ) ) ;
#110 = CARTESIAN_POINT ( 'NONE',  ( -26.67000000000000200, 3.266133013325990900E-015, -3.263683719727700000E-016 ) ) ;
#111 = COLOUR_RGB ( '',0.3843137254901960500, 0.3843137254901960500, 0.3843137254901960500 ) ;
#112 = ADVANCED_FACE ( 'NONE', ( #85 ), #53, .T. ) ;
#113 = AXIS2_PLACEMENT_3D ( 'NONE', #4, #57, #27 ) ;
#114 = ORIENTED_EDGE ( 'NONE', *, *, #23, .T. ) ;
#115 =( LENGTH_UNIT ( ) NAMED_UNIT ( * ) SI_UNIT ( .MILLI., .METRE. ) );
#116 = APPLICATION_CONTEXT ( 'automotive_design' ) ;
#117 = SURFACE_STYLE_USAGE ( .BOTH. , #89 ) ;
#118 = CARTESIAN_POINT ( 'NONE',  ( -32.00000000000000700, 3.918869757271531100E-015, 0.0000000000000000000 ) ) ;
#119 = ORIENTED_EDGE ( 'NONE', *, *, #156, .F. ) ;
#120 = CARTESIAN_POINT ( 'NONE',  ( 26.67000000000000200, 0.0000000000000000000, -3.263683719727700000E-016 ) ) ;
#121 = EDGE_CURVE ( 'NONE', #125, #62, #140, .T. ) ;
#122 = ORIENTED_EDGE ( 'NONE', *, *, #33, .T. ) ;
#123 = AXIS2_PLACEMENT_3D ( 'NONE', #28, #103, #41 ) ;
#124 = ADVANCED_FACE ( 'NONE', ( #60 ), #32, .T. ) ;
#125 = VERTEX_POINT ( 'NONE', #110 ) ;
#126 = DIRECTION ( 'NONE',  ( 1.000000000000000000, 0.0000000000000000000, 0.0000000000000000000 ) ) ;
#127 = FILL_AREA_STYLE ('',( #25 ) ) ;
#128 = AXIS2_PLACEMENT_3D ( 'NONE', #98, #2, #70 ) ;
#129 = DIRECTION ( 'NONE',  ( 1.000000000000000000, 0.0000000000000000000, 0.0000000000000000000 ) ) ;
#130 = SURFACE_STYLE_USAGE ( .BOTH. , #56 ) ;
#131 = AXIS2_PLACEMENT_3D ( 'NONE', #71, #138, #63 ) ;
#132 = EDGE_CURVE ( 'NONE', #7, #125, #106, .T. ) ;
#133 = CIRCLE ( 'NONE', #65, 2.665000000000001800 ) ;
#134 = CARTESIAN_POINT ( 'NONE',  ( 0.0000000000000000000, 0.0000000000000000000, 0.0000000000000000000 ) ) ;
#135 = CIRCLE ( 'NONE', #102, 26.67000000000000200 ) ;
#136 = PRODUCT_DEFINITION ( 'UNKNOWN', '', #149, #150 ) ;
#137 = AXIS2_PLACEMENT_3D ( 'NONE', #91, #6, #15 ) ;
#138 = DIRECTION ( 'NONE',  ( -0.0000000000000000000, -0.0000000000000000000, 1.000000000000000000 ) ) ;
#139 = ORIENTED_EDGE ( 'NONE', *, *, #132, .F. ) ;
#140 = CIRCLE ( 'NONE', #131, 26.67000000000000200 ) ;
#141 = PRESENTATION_STYLE_ASSIGNMENT (( #117 ) ) ;
#142 =( NAMED_UNIT ( * ) SI_UNIT ( $, .STERADIAN. ) SOLID_ANGLE_UNIT ( ) );
#143 = ORIENTED_EDGE ( 'NONE', *, *, #51, .T. ) ;
#144 = APPLICATION_CONTEXT ( 'automotive_design' ) ;
#145 = ORIENTED_EDGE ( 'NONE', *, *, #33, .F. ) ;
#146 = ORIENTED_EDGE ( 'NONE', *, *, #156, .T. ) ;
#147 = DIRECTION ( 'NONE',  ( -0.0000000000000000000, -0.0000000000000000000, 1.000000000000000000 ) ) ;
#148 = PRODUCT ( '103DOR050-S1', '103DOR050-S1', '', ( #45 ) ) ;
#149 = PRODUCT_DEFINITION_FORMATION_WITH_SPECIFIED_SOURCE ( 'ANY', '', #148, .NOT_KNOWN. ) ;
#150 = PRODUCT_DEFINITION_CONTEXT ( 'detailed design', #116, 'design' ) ;
#151 = TOROIDAL_SURFACE ( 'NONE', #153, 29.33500000000000400, 2.665000000000001800 ) ;
#152 = ORIENTED_EDGE ( 'NONE', *, *, #9, .F. ) ;
#153 = AXIS2_PLACEMENT_3D ( 'NONE', #73, #16, #105 ) ;
#154 = ORIENTED_EDGE ( 'NONE', *, *, #51, .F. ) ;
#155 = MANIFOLD_SOLID_BREP ( 'Rotation1', #74 ) ;
#156 = EDGE_CURVE ( 'NONE', #40, #7, #21, .T. ) ;
#157 = EDGE_LOOP ( 'NONE', ( #3, #146, #43, #154 ) ) ;
#158 = ORIENTED_EDGE ( 'NONE', *, *, #9, .T. ) ;
ENDSEC;
END-ISO-10303-21;
