ISO-10303-21;
HEADER;
FILE_DESCRIPTION (( 'STEP AP214' ),
    '1' );
FILE_NAME ('490DFL075-S10.stp',
    '2017-10-11T10:17:27',
    ( '' ),
    ( '' ),
    'SwSTEP 2.0',
    'SolidWorks 2015',
    '' );
FILE_SCHEMA (( 'AUTOMOTIVE_DESIGN' ));
ENDSEC;

DATA;
#1 = CARTESIAN_POINT ( 'NONE',  ( 0.0000000000000000000, 0.0000000000000000000, -2.000000000000000000 ) ) ;
#2 = ORIENTED_EDGE ( 'NONE', *, *, #29, .T. ) ;
#3 = CARTESIAN_POINT ( 'NONE',  ( -45.70000000000000300, 5.596635872103404600E-015, -2.000000000000000000 ) ) ;
#4 = CIRCLE ( 'NONE', #26, 38.15000000000000600 ) ;
#5 = DIRECTION ( 'NONE',  ( 0.0000000000000000000, 0.0000000000000000000, 1.000000000000000000 ) ) ;
#6 = FACE_BOUND ( 'NONE', #113, .T. ) ;
#7 = EDGE_CURVE ( 'NONE', #183, #205, #202, .T. ) ;
#8 = CIRCLE ( 'NONE', #61, 38.15000000000000600 ) ;
#9 = CARTESIAN_POINT ( 'NONE',  ( 0.0000000000000000000, 0.0000000000000000000, -2.000000000000000000 ) ) ;
#10 = PRESENTATION_STYLE_ASSIGNMENT (( #31 ) ) ;
#11 = CARTESIAN_POINT ( 'NONE',  ( 0.0000000000000000000, 0.0000000000000000000, 0.0000000000000000000 ) ) ;
#12 = CARTESIAN_POINT ( 'NONE',  ( 0.0000000000000000000, 0.0000000000000000000, -2.000000000000000000 ) ) ;
#13 = FACE_OUTER_BOUND ( 'NONE', #77, .T. ) ;
#14 =( NAMED_UNIT ( * ) SI_UNIT ( $, .STERADIAN. ) SOLID_ANGLE_UNIT ( ) );
#15 = EDGE_CURVE ( 'NONE', #199, #43, #41, .T. ) ;
#16 = DIRECTION ( 'NONE',  ( 1.000000000000000000, 0.0000000000000000000, 0.0000000000000000000 ) ) ;
#17 = AXIS2_PLACEMENT_3D ( 'NONE', #150, #60, #50 ) ;
#18 = DIRECTION ( 'NONE',  ( 1.000000000000000000, 0.0000000000000000000, 0.0000000000000000000 ) ) ;
#19 = VECTOR ( 'NONE', #101, 1000.000000000000000 ) ;
#20 = EDGE_CURVE ( 'NONE', #124, #154, #189, .T. ) ;
#21 = CARTESIAN_POINT ( 'NONE',  ( 38.15000000000000600, 0.0000000000000000000, 0.0000000000000000000 ) ) ;
#22 = ORIENTED_EDGE ( 'NONE', *, *, #53, .F. ) ;
#23 = FACE_OUTER_BOUND ( 'NONE', #193, .T. ) ;
#24 = LINE ( 'NONE', #197, #19 ) ;
#25 = EDGE_CURVE ( 'NONE', #205, #183, #89, .T. ) ;
#26 = AXIS2_PLACEMENT_3D ( 'NONE', #82, #157, #36 ) ;
#27 = CARTESIAN_POINT ( 'NONE',  ( 0.0000000000000000000, 0.0000000000000000000, -2.000000000000000000 ) ) ;
#28 =( NAMED_UNIT ( * ) PLANE_ANGLE_UNIT ( ) SI_UNIT ( $, .RADIAN. ) );
#29 = EDGE_CURVE ( 'NONE', #183, #154, #162, .T. ) ;
#30 = CARTESIAN_POINT ( 'NONE',  ( 45.70000000000000300, 0.0000000000000000000, -2.000000000000000000 ) ) ;
#31 = SURFACE_STYLE_USAGE ( .BOTH. , #98 ) ;
#32 = ORIENTED_EDGE ( 'NONE', *, *, #97, .T. ) ;
#33 = SURFACE_STYLE_USAGE ( .BOTH. , #51 ) ;
#34 = DIRECTION ( 'NONE',  ( 0.0000000000000000000, 0.0000000000000000000, 1.000000000000000000 ) ) ;
#35 = FACE_OUTER_BOUND ( 'NONE', #39, .T. ) ;
#36 = DIRECTION ( 'NONE',  ( 1.000000000000000000, 0.0000000000000000000, 0.0000000000000000000 ) ) ;
#37 = EDGE_CURVE ( 'NONE', #199, #164, #8, .T. ) ;
#38 = PRODUCT_RELATED_PRODUCT_CATEGORY ( 'part', '', ( #121 ) ) ;
#39 = EDGE_LOOP ( 'NONE', ( #148, #171, #96, #115 ) ) ;
#40 = AXIS2_PLACEMENT_3D ( 'NONE', #163, #174, #203 ) ;
#41 = LINE ( 'NONE', #119, #161 ) ;
#42 = EDGE_CURVE ( 'NONE', #43, #177, #46, .T. ) ;
#43 = VERTEX_POINT ( 'NONE', #21 ) ;
#44 = DIRECTION ( 'NONE',  ( 1.000000000000000000, 0.0000000000000000000, 0.0000000000000000000 ) ) ;
#45 =( LENGTH_UNIT ( ) NAMED_UNIT ( * ) SI_UNIT ( .MILLI., .METRE. ) );
#46 = CIRCLE ( 'NONE', #213, 38.15000000000000600 ) ;
#47 = FILL_AREA_STYLE ('',( #116 ) ) ;
#48 = DIRECTION ( 'NONE',  ( 0.0000000000000000000, 0.0000000000000000000, 1.000000000000000000 ) ) ;
#49 = CYLINDRICAL_SURFACE ( 'NONE', #112, 38.15000000000000600 ) ;
#50 = DIRECTION ( 'NONE',  ( 1.000000000000000000, 0.0000000000000000000, 0.0000000000000000000 ) ) ;
#51 = SURFACE_SIDE_STYLE ('',( #71 ) ) ;
#52 = APPLICATION_CONTEXT ( 'automotive_design' ) ;
#53 = EDGE_CURVE ( 'NONE', #205, #124, #24, .T. ) ;
#54 = ORIENTED_EDGE ( 'NONE', *, *, #7, .F. ) ;
#55 = PRESENTATION_LAYER_ASSIGNMENT (  '', '', ( #86 ) ) ;
#56 = ORIENTED_EDGE ( 'NONE', *, *, #159, .F. ) ;
#57 = APPLICATION_PROTOCOL_DEFINITION ( 'draft international standard', 'automotive_design', 1998, #155 ) ;
#58 = UNCERTAINTY_MEASURE_WITH_UNIT (LENGTH_MEASURE( 1.000000000000000100E-005 ), #100, 'distance_accuracy_value', 'NONE');
#59 =( NAMED_UNIT ( * ) SI_UNIT ( $, .STERADIAN. ) SOLID_ANGLE_UNIT ( ) );
#60 = DIRECTION ( 'NONE',  ( 0.0000000000000000000, 0.0000000000000000000, 1.000000000000000000 ) ) ;
#61 = AXIS2_PLACEMENT_3D ( 'NONE', #1, #165, #133 ) ;
#62 = ORIENTED_EDGE ( 'NONE', *, *, #20, .F. ) ;
#63 = MECHANICAL_DESIGN_GEOMETRIC_PRESENTATION_REPRESENTATION (  '', ( #86 ), #99 ) ;
#64 = DIRECTION ( 'NONE',  ( 0.0000000000000000000, 0.0000000000000000000, 1.000000000000000000 ) ) ;
#65 = ORIENTED_EDGE ( 'NONE', *, *, #25, .T. ) ;
#66 = ADVANCED_FACE ( 'NONE', ( #6, #13 ), #85, .F. ) ;
#67 = CARTESIAN_POINT ( 'NONE',  ( -38.15000000000000600, 4.672027538747153200E-015, -2.000000000000000000 ) ) ;
#68 = CARTESIAN_POINT ( 'NONE',  ( 0.0000000000000000000, 0.0000000000000000000, -2.000000000000000000 ) ) ;
#69 = ORIENTED_EDGE ( 'NONE', *, *, #42, .F. ) ;
#70 = PRODUCT_DEFINITION_CONTEXT ( 'detailed design', #52, 'design' ) ;
#71 = SURFACE_STYLE_FILL_AREA ( #47 ) ;
#72 = ADVANCED_FACE ( 'NONE', ( #128, #111 ), #166, .T. ) ;
#73 = CLOSED_SHELL ( 'NONE', ( #94, #127, #156, #66, #72, #74 ) ) ;
#74 = ADVANCED_FACE ( 'NONE', ( #144 ), #126, .F. ) ;
#75 = COLOUR_RGB ( '',0.7254901960784313500, 0.4470588235294117300, 0.3686274509803921800 ) ;
#76 = EDGE_LOOP ( 'NONE', ( #69, #118 ) ) ;
#77 = EDGE_LOOP ( 'NONE', ( #54, #129 ) ) ;
#78 = CARTESIAN_POINT ( 'NONE',  ( 0.0000000000000000000, 0.0000000000000000000, 0.0000000000000000000 ) ) ;
#79 = CARTESIAN_POINT ( 'NONE',  ( 45.70000000000000300, 0.0000000000000000000, 0.0000000000000000000 ) ) ;
#80 = DIRECTION ( 'NONE',  ( 0.0000000000000000000, 0.0000000000000000000, 1.000000000000000000 ) ) ;
#81 = CIRCLE ( 'NONE', #125, 38.15000000000000600 ) ;
#82 = CARTESIAN_POINT ( 'NONE',  ( 0.0000000000000000000, 0.0000000000000000000, 0.0000000000000000000 ) ) ;
#83 = ORIENTED_EDGE ( 'NONE', *, *, #37, .F. ) ;
#84 =( LENGTH_UNIT ( ) NAMED_UNIT ( * ) SI_UNIT ( .MILLI., .METRE. ) );
#85 = PLANE ( 'NONE',  #209 ) ;
#86 = STYLED_ITEM ( 'NONE', ( #10 ), #210 ) ;
#87 = DIRECTION ( 'NONE',  ( 1.000000000000000000, 0.0000000000000000000, 0.0000000000000000000 ) ) ;
#88 = CARTESIAN_POINT ( 'NONE',  ( 38.15000000000000600, 0.0000000000000000000, -2.000000000000000000 ) ) ;
#89 = CIRCLE ( 'NONE', #167, 45.70000000000000300 ) ;
#90 = DIRECTION ( 'NONE',  ( 1.000000000000000000, 0.0000000000000000000, 0.0000000000000000000 ) ) ;
#91 = CYLINDRICAL_SURFACE ( 'NONE', #201, 45.70000000000000300 ) ;
#92 = ORIENTED_EDGE ( 'NONE', *, *, #42, .T. ) ;
#93 =( GEOMETRIC_REPRESENTATION_CONTEXT ( 3 ) GLOBAL_UNCERTAINTY_ASSIGNED_CONTEXT ( ( #182 ) ) GLOBAL_UNIT_ASSIGNED_CONTEXT ( ( #84, #200, #196 ) ) REPRESENTATION_CONTEXT ( 'NONE', 'WORKASPACE' ) );
#94 = ADVANCED_FACE ( 'NONE', ( #23 ), #49, .F. ) ;
#95 = ORIENTED_EDGE ( 'NONE', *, *, #20, .T. ) ;
#96 = ORIENTED_EDGE ( 'NONE', *, *, #147, .F. ) ;
#97 = EDGE_CURVE ( 'NONE', #177, #43, #4, .T. ) ;
#98 = SURFACE_SIDE_STYLE ('',( #110 ) ) ;
#99 =( GEOMETRIC_REPRESENTATION_CONTEXT ( 3 ) GLOBAL_UNCERTAINTY_ASSIGNED_CONTEXT ( ( #194 ) ) GLOBAL_UNIT_ASSIGNED_CONTEXT ( ( #45, #28, #59 ) ) REPRESENTATION_CONTEXT ( 'NONE', 'WORKASPACE' ) );
#100 =( LENGTH_UNIT ( ) NAMED_UNIT ( * ) SI_UNIT ( .MILLI., .METRE. ) );
#101 = DIRECTION ( 'NONE',  ( 0.0000000000000000000, 0.0000000000000000000, 1.000000000000000000 ) ) ;
#102 = EDGE_LOOP ( 'NONE', ( #56, #83, #160, #92 ) ) ;
#103 = AXIS2_PLACEMENT_3D ( 'NONE', #78, #136, #179 ) ;
#104 = DIRECTION ( 'NONE',  ( 1.000000000000000000, 0.0000000000000000000, 0.0000000000000000000 ) ) ;
#105 = DIRECTION ( 'NONE',  ( 0.0000000000000000000, 0.0000000000000000000, 1.000000000000000000 ) ) ;
#106 = DIRECTION ( 'NONE',  ( 0.0000000000000000000, 0.0000000000000000000, 1.000000000000000000 ) ) ;
#107 = DIRECTION ( 'NONE',  ( 0.0000000000000000000, 0.0000000000000000000, 1.000000000000000000 ) ) ;
#108 = EDGE_LOOP ( 'NONE', ( #208, #95 ) ) ;
#109 = PRODUCT_DEFINITION_FORMATION_WITH_SPECIFIED_SOURCE ( 'ANY', '', #121, .NOT_KNOWN. ) ;
#110 = SURFACE_STYLE_FILL_AREA ( #151 ) ;
#111 = FACE_OUTER_BOUND ( 'NONE', #108, .T. ) ;
#112 = AXIS2_PLACEMENT_3D ( 'NONE', #9, #107, #130 ) ;
#113 = EDGE_LOOP ( 'NONE', ( #158, #175 ) ) ;
#114 = AXIS2_PLACEMENT_3D ( 'NONE', #170, #48, #44 ) ;
#115 = ORIENTED_EDGE ( 'NONE', *, *, #29, .F. ) ;
#116 = FILL_AREA_STYLE_COLOUR ( '', #192 ) ;
#117 = CARTESIAN_POINT ( 'NONE',  ( 0.0000000000000000000, 0.0000000000000000000, 0.0000000000000000000 ) ) ;
#118 = ORIENTED_EDGE ( 'NONE', *, *, #97, .F. ) ;
#119 = CARTESIAN_POINT ( 'NONE',  ( 38.15000000000000600, 0.0000000000000000000, -2.000000000000000000 ) ) ;
#120 = ORIENTED_EDGE ( 'NONE', *, *, #159, .T. ) ;
#121 = PRODUCT ( '490DFL075-S10', '490DFL075-S10', '', ( #152 ) ) ;
#122 = DIRECTION ( 'NONE',  ( 0.0000000000000000000, 0.0000000000000000000, 1.000000000000000000 ) ) ;
#123 = CARTESIAN_POINT ( 'NONE',  ( 0.0000000000000000000, 0.0000000000000000000, -2.000000000000000000 ) ) ;
#124 = VERTEX_POINT ( 'NONE', #204 ) ;
#125 = AXIS2_PLACEMENT_3D ( 'NONE', #123, #5, #16 ) ;
#126 = CYLINDRICAL_SURFACE ( 'NONE', #40, 38.15000000000000600 ) ;
#127 = ADVANCED_FACE ( 'NONE', ( #35 ), #91, .T. ) ;
#128 = FACE_BOUND ( 'NONE', #76, .T. ) ;
#129 = ORIENTED_EDGE ( 'NONE', *, *, #25, .F. ) ;
#130 = DIRECTION ( 'NONE',  ( 1.000000000000000000, 0.0000000000000000000, 0.0000000000000000000 ) ) ;
#131 = DIRECTION ( 'NONE',  ( 0.0000000000000000000, 0.0000000000000000000, 1.000000000000000000 ) ) ;
#132 = PRESENTATION_STYLE_ASSIGNMENT (( #33 ) ) ;
#133 = DIRECTION ( 'NONE',  ( 1.000000000000000000, 0.0000000000000000000, 0.0000000000000000000 ) ) ;
#134 = EDGE_LOOP ( 'NONE', ( #22, #65, #2, #62 ) ) ;
#135 = DIRECTION ( 'NONE',  ( 0.0000000000000000000, 0.0000000000000000000, 1.000000000000000000 ) ) ;
#136 = DIRECTION ( 'NONE',  ( 0.0000000000000000000, 0.0000000000000000000, 1.000000000000000000 ) ) ;
#137 = AXIS2_PLACEMENT_3D ( 'NONE', #27, #34, #104 ) ;
#138 = VECTOR ( 'NONE', #105, 1000.000000000000000 ) ;
#139 = CARTESIAN_POINT ( 'NONE',  ( -38.15000000000000600, 4.672027538747153200E-015, 0.0000000000000000000 ) ) ;
#140 = AXIS2_PLACEMENT_3D ( 'NONE', #117, #80, #18 ) ;
#141 = CARTESIAN_POINT ( 'NONE',  ( 45.70000000000000300, 0.0000000000000000000, -2.000000000000000000 ) ) ;
#142 = MANIFOLD_SOLID_BREP ( 'Aufsatz-Linear austragen1', #73 ) ;
#143 = CARTESIAN_POINT ( 'NONE',  ( 0.0000000000000000000, 0.0000000000000000000, 0.0000000000000000000 ) ) ;
#144 = FACE_OUTER_BOUND ( 'NONE', #102, .T. ) ;
#145 = PRESENTATION_LAYER_ASSIGNMENT (  '', '', ( #172 ) ) ;
#146 = VECTOR ( 'NONE', #135, 1000.000000000000000 ) ;
#147 = EDGE_CURVE ( 'NONE', #154, #124, #206, .T. ) ;
#148 = ORIENTED_EDGE ( 'NONE', *, *, #7, .T. ) ;
#149 = MECHANICAL_DESIGN_GEOMETRIC_PRESENTATION_REPRESENTATION (  '', ( #172 ), #176 ) ;
#150 = CARTESIAN_POINT ( 'NONE',  ( 0.0000000000000000000, 0.0000000000000000000, -2.000000000000000000 ) ) ;
#151 = FILL_AREA_STYLE ('',( #181 ) ) ;
#152 = PRODUCT_CONTEXT ( 'NONE', #155, 'mechanical' ) ;
#153 =( NAMED_UNIT ( * ) PLANE_ANGLE_UNIT ( ) SI_UNIT ( $, .RADIAN. ) );
#154 = VERTEX_POINT ( 'NONE', #79 ) ;
#155 = APPLICATION_CONTEXT ( 'automotive_design' ) ;
#156 = ADVANCED_FACE ( 'NONE', ( #180 ), #188, .T. ) ;
#157 = DIRECTION ( 'NONE',  ( 0.0000000000000000000, 0.0000000000000000000, 1.000000000000000000 ) ) ;
#158 = ORIENTED_EDGE ( 'NONE', *, *, #37, .T. ) ;
#159 = EDGE_CURVE ( 'NONE', #164, #177, #191, .T. ) ;
#160 = ORIENTED_EDGE ( 'NONE', *, *, #15, .T. ) ;
#161 = VECTOR ( 'NONE', #184, 1000.000000000000000 ) ;
#162 = LINE ( 'NONE', #30, #138 ) ;
#163 = CARTESIAN_POINT ( 'NONE',  ( 0.0000000000000000000, 0.0000000000000000000, -2.000000000000000000 ) ) ;
#164 = VERTEX_POINT ( 'NONE', #67 ) ;
#165 = DIRECTION ( 'NONE',  ( 0.0000000000000000000, 0.0000000000000000000, 1.000000000000000000 ) ) ;
#166 = PLANE ( 'NONE',  #103 ) ;
#167 = AXIS2_PLACEMENT_3D ( 'NONE', #12, #131, #198 ) ;
#168 = PRODUCT_DEFINITION ( 'UNKNOWN', '', #109, #70 ) ;
#169 = DIRECTION ( 'NONE',  ( 1.000000000000000000, 0.0000000000000000000, 0.0000000000000000000 ) ) ;
#170 = CARTESIAN_POINT ( 'NONE',  ( 0.0000000000000000000, 0.0000000000000000000, 0.0000000000000000000 ) ) ;
#171 = ORIENTED_EDGE ( 'NONE', *, *, #53, .T. ) ;
#172 = STYLED_ITEM ( 'NONE', ( #132 ), #142 ) ;
#173 = PRODUCT_DEFINITION_SHAPE ( 'NONE', 'NONE',  #168 ) ;
#174 = DIRECTION ( 'NONE',  ( 0.0000000000000000000, 0.0000000000000000000, 1.000000000000000000 ) ) ;
#175 = ORIENTED_EDGE ( 'NONE', *, *, #190, .T. ) ;
#176 =( GEOMETRIC_REPRESENTATION_CONTEXT ( 3 ) GLOBAL_UNCERTAINTY_ASSIGNED_CONTEXT ( ( #58 ) ) GLOBAL_UNIT_ASSIGNED_CONTEXT ( ( #100, #153, #14 ) ) REPRESENTATION_CONTEXT ( 'NONE', 'WORKASPACE' ) );
#177 = VERTEX_POINT ( 'NONE', #139 ) ;
#178 = AXIS2_PLACEMENT_3D ( 'NONE', #143, #214, #169 ) ;
#179 = DIRECTION ( 'NONE',  ( 1.000000000000000000, 0.0000000000000000000, -0.0000000000000000000 ) ) ;
#180 = FACE_OUTER_BOUND ( 'NONE', #134, .T. ) ;
#181 = FILL_AREA_STYLE_COLOUR ( '', #75 ) ;
#182 = UNCERTAINTY_MEASURE_WITH_UNIT (LENGTH_MEASURE( 1.000000000000000100E-005 ), #84, 'distance_accuracy_value', 'NONE');
#183 = VERTEX_POINT ( 'NONE', #141 ) ;
#184 = DIRECTION ( 'NONE',  ( 0.0000000000000000000, 0.0000000000000000000, 1.000000000000000000 ) ) ;
#185 = SHAPE_DEFINITION_REPRESENTATION ( #173, #210 ) ;
#186 = CARTESIAN_POINT ( 'NONE',  ( 0.0000000000000000000, 0.0000000000000000000, -2.000000000000000000 ) ) ;
#187 = DIRECTION ( 'NONE',  ( 1.000000000000000000, 0.0000000000000000000, -0.0000000000000000000 ) ) ;
#188 = CYLINDRICAL_SURFACE ( 'NONE', #17, 45.70000000000000300 ) ;
#189 = CIRCLE ( 'NONE', #178, 45.70000000000000300 ) ;
#190 = EDGE_CURVE ( 'NONE', #164, #199, #81, .T. ) ;
#191 = LINE ( 'NONE', #212, #146 ) ;
#192 = COLOUR_RGB ( '',0.7254901960784313500, 0.4470588235294117300, 0.3686274509803921800 ) ;
#193 = EDGE_LOOP ( 'NONE', ( #207, #120, #32, #195 ) ) ;
#194 = UNCERTAINTY_MEASURE_WITH_UNIT (LENGTH_MEASURE( 1.000000000000000100E-005 ), #45, 'distance_accuracy_value', 'NONE');
#195 = ORIENTED_EDGE ( 'NONE', *, *, #15, .F. ) ;
#196 =( NAMED_UNIT ( * ) SI_UNIT ( $, .STERADIAN. ) SOLID_ANGLE_UNIT ( ) );
#197 = CARTESIAN_POINT ( 'NONE',  ( -45.70000000000000300, 5.596635872103404600E-015, -2.000000000000000000 ) ) ;
#198 = DIRECTION ( 'NONE',  ( 1.000000000000000000, 0.0000000000000000000, 0.0000000000000000000 ) ) ;
#199 = VERTEX_POINT ( 'NONE', #88 ) ;
#200 =( NAMED_UNIT ( * ) PLANE_ANGLE_UNIT ( ) SI_UNIT ( $, .RADIAN. ) );
#201 = AXIS2_PLACEMENT_3D ( 'NONE', #68, #106, #90 ) ;
#202 = CIRCLE ( 'NONE', #137, 45.70000000000000300 ) ;
#203 = DIRECTION ( 'NONE',  ( 1.000000000000000000, 0.0000000000000000000, 0.0000000000000000000 ) ) ;
#204 = CARTESIAN_POINT ( 'NONE',  ( -45.70000000000000300, 5.596635872103404600E-015, 0.0000000000000000000 ) ) ;
#205 = VERTEX_POINT ( 'NONE', #3 ) ;
#206 = CIRCLE ( 'NONE', #140, 45.70000000000000300 ) ;
#207 = ORIENTED_EDGE ( 'NONE', *, *, #190, .F. ) ;
#208 = ORIENTED_EDGE ( 'NONE', *, *, #147, .T. ) ;
#209 = AXIS2_PLACEMENT_3D ( 'NONE', #186, #122, #187 ) ;
#210 = ADVANCED_BREP_SHAPE_REPRESENTATION ( '490DFL075-S10', ( #142, #114 ), #93 ) ;
#211 = APPLICATION_PROTOCOL_DEFINITION ( 'draft international standard', 'automotive_design', 1998, #52 ) ;
#212 = CARTESIAN_POINT ( 'NONE',  ( -38.15000000000000600, 4.672027538747153200E-015, -2.000000000000000000 ) ) ;
#213 = AXIS2_PLACEMENT_3D ( 'NONE', #11, #64, #87 ) ;
#214 = DIRECTION ( 'NONE',  ( 0.0000000000000000000, 0.0000000000000000000, 1.000000000000000000 ) ) ;
ENDSEC;
END-ISO-10303-21;
