ISO-10303-21;
HEADER;
FILE_DESCRIPTION (( 'STEP AP214' ),
    '1' );
FILE_NAME ('106DOR025-S1.step',
    '2017-07-06T09:24:40',
    ( 'install' ),
    ( '' ),
    'SwSTEP 2.0',
    'SolidWorks 2015',
    '' );
FILE_SCHEMA (( 'AUTOMOTIVE_DESIGN' ));
ENDSEC;

DATA;
#1 = ORIENTED_EDGE ( 'NONE', *, *, #145, .F. ) ;
#2 = DIRECTION ( 'NONE',  ( 1.224646799147353200E-016, 1.000000000000000000, 0.0000000000000000000 ) ) ;
#3 = DIRECTION ( 'NONE',  ( -0.0000000000000000000, -0.0000000000000000000, 1.000000000000000000 ) ) ;
#4 = DIRECTION ( 'NONE',  ( 0.0000000000000000000, 0.0000000000000000000, 1.000000000000000000 ) ) ;
#5 = EDGE_LOOP ( 'NONE', ( #27, #157, #135, #46 ) ) ;
#6 = DIRECTION ( 'NONE',  ( 0.0000000000000000000, -1.000000000000000000, 0.0000000000000000000 ) ) ;
#7 = CARTESIAN_POINT ( 'NONE',  ( 0.0000000000000000000, 0.0000000000000000000, 0.0000000000000000000 ) ) ;
#8 =( GEOMETRIC_REPRESENTATION_CONTEXT ( 3 ) GLOBAL_UNCERTAINTY_ASSIGNED_CONTEXT ( ( #72 ) ) GLOBAL_UNIT_ASSIGNED_CONTEXT ( ( #117, #49, #131 ) ) REPRESENTATION_CONTEXT ( 'NONE', 'WORKASPACE' ) );
#9 = UNCERTAINTY_MEASURE_WITH_UNIT (LENGTH_MEASURE( 1.000000000000000100E-005 ), #109, 'distance_accuracy_value', 'NONE');
#10 = FILL_AREA_STYLE ('',( #69 ) ) ;
#11 = EDGE_CURVE ( 'NONE', #99, #74, #60, .T. ) ;
#12 = EDGE_LOOP ( 'NONE', ( #141, #41, #62, #43 ) ) ;
#13 = ORIENTED_EDGE ( 'NONE', *, *, #18, .T. ) ;
#14 = CIRCLE ( 'NONE', #119, 2.499999999999998700 ) ;
#15 = ADVANCED_FACE ( 'NONE', ( #90 ), #32, .T. ) ;
#16 = AXIS2_PLACEMENT_3D ( 'NONE', #7, #94, #24 ) ;
#17 = CARTESIAN_POINT ( 'NONE',  ( -16.50000000000000000, 2.020667218593133100E-015, 0.0000000000000000000 ) ) ;
#18 = EDGE_CURVE ( 'NONE', #74, #113, #152, .T. ) ;
#19 = DIRECTION ( 'NONE',  ( -0.0000000000000000000, -0.0000000000000000000, 1.000000000000000000 ) ) ;
#20 = CARTESIAN_POINT ( 'NONE',  ( -16.50000000000000000, 2.020667218593133100E-015, 0.0000000000000000000 ) ) ;
#21 = CIRCLE ( 'NONE', #29, 14.00000000000000200 ) ;
#22 = FILL_AREA_STYLE ('',( #67 ) ) ;
#23 = AXIS2_PLACEMENT_3D ( 'NONE', #17, #2, #127 ) ;
#24 = DIRECTION ( 'NONE',  ( 1.000000000000000000, 0.0000000000000000000, 0.0000000000000000000 ) ) ;
#25 = CARTESIAN_POINT ( 'NONE',  ( 0.0000000000000000000, 0.0000000000000000000, 0.0000000000000000000 ) ) ;
#26 = SURFACE_STYLE_USAGE ( .BOTH. , #96 ) ;
#27 = ORIENTED_EDGE ( 'NONE', *, *, #31, .F. ) ;
#28 = FACE_OUTER_BOUND ( 'NONE', #12, .T. ) ;
#29 = AXIS2_PLACEMENT_3D ( 'NONE', #118, #50, #132 ) ;
#30 = ADVANCED_FACE ( 'NONE', ( #121 ), #87, .T. ) ;
#31 = EDGE_CURVE ( 'NONE', #128, #113, #57, .T. ) ;
#32 = TOROIDAL_SURFACE ( 'NONE', #95, 16.50000000000000000, 2.499999999999998700 ) ;
#33 = COLOUR_RGB ( '',0.3843137254901960500, 0.3843137254901960500, 0.3843137254901960500 ) ;
#34 = DIRECTION ( 'NONE',  ( 1.000000000000000000, 0.0000000000000000000, 0.0000000000000000000 ) ) ;
#35 = EDGE_LOOP ( 'NONE', ( #1, #104, #13, #97 ) ) ;
#36 = DIRECTION ( 'NONE',  ( -1.000000000000000000, 1.224646799147352700E-016, 0.0000000000000000000 ) ) ;
#37 = SURFACE_STYLE_USAGE ( .BOTH. , #107 ) ;
#38 = DIRECTION ( 'NONE',  ( -0.0000000000000000000, -0.0000000000000000000, 1.000000000000000000 ) ) ;
#39 = AXIS2_PLACEMENT_3D ( 'NONE', #108, #38, #120 ) ;
#40 =( NAMED_UNIT ( * ) PLANE_ANGLE_UNIT ( ) SI_UNIT ( $, .RADIAN. ) );
#41 = ORIENTED_EDGE ( 'NONE', *, *, #145, .T. ) ;
#42 = ADVANCED_BREP_SHAPE_REPRESENTATION ( '106DOR025-S1', ( #100, #115 ), #52 ) ;
#43 = ORIENTED_EDGE ( 'NONE', *, *, #18, .F. ) ;
#44 = AXIS2_PLACEMENT_3D ( 'NONE', #58, #142, #143 ) ;
#45 = APPLICATION_CONTEXT ( 'automotive_design' ) ;
#46 = ORIENTED_EDGE ( 'NONE', *, *, #112, .F. ) ;
#47 = CARTESIAN_POINT ( 'NONE',  ( 0.0000000000000000000, 0.0000000000000000000, 0.0000000000000000000 ) ) ;
#48 = DIRECTION ( 'NONE',  ( 1.000000000000000000, 0.0000000000000000000, 0.0000000000000000000 ) ) ;
#49 =( NAMED_UNIT ( * ) PLANE_ANGLE_UNIT ( ) SI_UNIT ( $, .RADIAN. ) );
#50 = DIRECTION ( 'NONE',  ( -0.0000000000000000000, -0.0000000000000000000, 1.000000000000000000 ) ) ;
#51 =( LENGTH_UNIT ( ) NAMED_UNIT ( * ) SI_UNIT ( .MILLI., .METRE. ) );
#52 =( GEOMETRIC_REPRESENTATION_CONTEXT ( 3 ) GLOBAL_UNCERTAINTY_ASSIGNED_CONTEXT ( ( #61 ) ) GLOBAL_UNIT_ASSIGNED_CONTEXT ( ( #51, #133, #59 ) ) REPRESENTATION_CONTEXT ( 'NONE', 'WORKASPACE' ) );
#53 = SHAPE_DEFINITION_REPRESENTATION ( #156, #42 ) ;
#54 = CIRCLE ( 'NONE', #16, 19.00000000000000000 ) ;
#55 = DIRECTION ( 'NONE',  ( 1.000000000000000000, 0.0000000000000000000, 0.0000000000000000000 ) ) ;
#56 = CARTESIAN_POINT ( 'NONE',  ( -19.00000000000000000, 2.326828918379971000E-015, 0.0000000000000000000 ) ) ;
#57 = CIRCLE ( 'NONE', #102, 2.499999999999998700 ) ;
#58 = CARTESIAN_POINT ( 'NONE',  ( 0.0000000000000000000, 0.0000000000000000000, 0.0000000000000000000 ) ) ;
#59 =( NAMED_UNIT ( * ) SI_UNIT ( $, .STERADIAN. ) SOLID_ANGLE_UNIT ( ) );
#60 = CIRCLE ( 'NONE', #23, 2.499999999999998700 ) ;
#61 = UNCERTAINTY_MEASURE_WITH_UNIT (LENGTH_MEASURE( 1.000000000000000100E-005 ), #51, 'distance_accuracy_value', 'NONE');
#62 = ORIENTED_EDGE ( 'NONE', *, *, #31, .T. ) ;
#63 = PRODUCT_DEFINITION_CONTEXT ( 'detailed design', #45, 'design' ) ;
#64 = STYLED_ITEM ( 'NONE', ( #122 ), #42 ) ;
#65 = ORIENTED_EDGE ( 'NONE', *, *, #98, .F. ) ;
#66 = CARTESIAN_POINT ( 'NONE',  ( 16.50000000000000000, 0.0000000000000000000, 0.0000000000000000000 ) ) ;
#67 = FILL_AREA_STYLE_COLOUR ( '', #146 ) ;
#68 = EDGE_CURVE ( 'NONE', #74, #99, #14, .T. ) ;
#69 = FILL_AREA_STYLE_COLOUR ( '', #33 ) ;
#70 = APPLICATION_PROTOCOL_DEFINITION ( 'draft international standard', 'automotive_design', 1998, #83 ) ;
#71 = CLOSED_SHELL ( 'NONE', ( #75, #15, #124, #30 ) ) ;
#72 = UNCERTAINTY_MEASURE_WITH_UNIT (LENGTH_MEASURE( 1.000000000000000100E-005 ), #117, 'distance_accuracy_value', 'NONE');
#73 = PRESENTATION_LAYER_ASSIGNMENT (  '', '', ( #64 ) ) ;
#74 = VERTEX_POINT ( 'NONE', #78 ) ;
#75 = ADVANCED_FACE ( 'NONE', ( #28 ), #116, .T. ) ;
#76 = AXIS2_PLACEMENT_3D ( 'NONE', #89, #19, #105 ) ;
#77 = EDGE_LOOP ( 'NONE', ( #125, #65, #139, #110 ) ) ;
#78 = CARTESIAN_POINT ( 'NONE',  ( -14.00000000000000200, 1.714505518806294800E-015, -3.061616997868381700E-016 ) ) ;
#79 = DIRECTION ( 'NONE',  ( 0.0000000000000000000, 0.0000000000000000000, -1.000000000000000000 ) ) ;
#80 = CARTESIAN_POINT ( 'NONE',  ( 16.50000000000000000, 0.0000000000000000000, 0.0000000000000000000 ) ) ;
#81 = PRESENTATION_STYLE_ASSIGNMENT (( #37 ) ) ;
#82 = CARTESIAN_POINT ( 'NONE',  ( 14.00000000000000200, 0.0000000000000000000, -3.061616997868381700E-016 ) ) ;
#83 = APPLICATION_CONTEXT ( 'automotive_design' ) ;
#84 = DIRECTION ( 'NONE',  ( 1.000000000000000000, 0.0000000000000000000, 0.0000000000000000000 ) ) ;
#85 = MECHANICAL_DESIGN_GEOMETRIC_PRESENTATION_REPRESENTATION (  '', ( #64 ), #88 ) ;
#86 = CIRCLE ( 'NONE', #126, 2.499999999999998700 ) ;
#87 = TOROIDAL_SURFACE ( 'NONE', #111, 16.50000000000000000, 2.499999999999998700 ) ;
#88 =( GEOMETRIC_REPRESENTATION_CONTEXT ( 3 ) GLOBAL_UNCERTAINTY_ASSIGNED_CONTEXT ( ( #9 ) ) GLOBAL_UNIT_ASSIGNED_CONTEXT ( ( #109, #40, #153 ) ) REPRESENTATION_CONTEXT ( 'NONE', 'WORKASPACE' ) );
#89 = CARTESIAN_POINT ( 'NONE',  ( 0.0000000000000000000, 0.0000000000000000000, -3.061616997868381700E-016 ) ) ;
#90 = FACE_OUTER_BOUND ( 'NONE', #5, .T. ) ;
#91 = DIRECTION ( 'NONE',  ( -0.0000000000000000000, -0.0000000000000000000, 1.000000000000000000 ) ) ;
#92 = DIRECTION ( 'NONE',  ( 0.0000000000000000000, 0.0000000000000000000, -1.000000000000000000 ) ) ;
#93 = APPLICATION_PROTOCOL_DEFINITION ( 'draft international standard', 'automotive_design', 1998, #45 ) ;
#94 = DIRECTION ( 'NONE',  ( -0.0000000000000000000, -0.0000000000000000000, 1.000000000000000000 ) ) ;
#95 = AXIS2_PLACEMENT_3D ( 'NONE', #47, #3, #55 ) ;
#96 = SURFACE_SIDE_STYLE ('',( #155 ) ) ;
#97 = ORIENTED_EDGE ( 'NONE', *, *, #98, .T. ) ;
#98 = EDGE_CURVE ( 'NONE', #113, #128, #86, .T. ) ;
#99 = VERTEX_POINT ( 'NONE', #56 ) ;
#100 = MANIFOLD_SOLID_BREP ( 'Rotation1', #71 ) ;
#101 = FACE_OUTER_BOUND ( 'NONE', #77, .T. ) ;
#102 = AXIS2_PLACEMENT_3D ( 'NONE', #66, #151, #79 ) ;
#103 = EDGE_CURVE ( 'NONE', #128, #99, #54, .T. ) ;
#104 = ORIENTED_EDGE ( 'NONE', *, *, #68, .F. ) ;
#105 = DIRECTION ( 'NONE',  ( 1.000000000000000000, 0.0000000000000000000, 0.0000000000000000000 ) ) ;
#106 = DIRECTION ( 'NONE',  ( 1.224646799147353200E-016, 1.000000000000000000, 0.0000000000000000000 ) ) ;
#107 = SURFACE_SIDE_STYLE ('',( #114 ) ) ;
#108 = CARTESIAN_POINT ( 'NONE',  ( 0.0000000000000000000, 0.0000000000000000000, 0.0000000000000000000 ) ) ;
#109 =( LENGTH_UNIT ( ) NAMED_UNIT ( * ) SI_UNIT ( .MILLI., .METRE. ) );
#110 = ORIENTED_EDGE ( 'NONE', *, *, #68, .T. ) ;
#111 = AXIS2_PLACEMENT_3D ( 'NONE', #149, #150, #34 ) ;
#112 = EDGE_CURVE ( 'NONE', #113, #74, #21, .T. ) ;
#113 = VERTEX_POINT ( 'NONE', #82 ) ;
#114 = SURFACE_STYLE_FILL_AREA ( #22 ) ;
#115 = AXIS2_PLACEMENT_3D ( 'NONE', #25, #4, #84 ) ;
#116 = TOROIDAL_SURFACE ( 'NONE', #138, 16.50000000000000000, 2.499999999999998700 ) ;
#117 =( LENGTH_UNIT ( ) NAMED_UNIT ( * ) SI_UNIT ( .MILLI., .METRE. ) );
#118 = CARTESIAN_POINT ( 'NONE',  ( 0.0000000000000000000, 0.0000000000000000000, -3.061616997868381700E-016 ) ) ;
#119 = AXIS2_PLACEMENT_3D ( 'NONE', #20, #106, #36 ) ;
#120 = DIRECTION ( 'NONE',  ( 1.000000000000000000, 0.0000000000000000000, 0.0000000000000000000 ) ) ;
#121 = FACE_OUTER_BOUND ( 'NONE', #35, .T. ) ;
#122 = PRESENTATION_STYLE_ASSIGNMENT (( #26 ) ) ;
#123 = PRODUCT_DEFINITION ( 'UNKNOWN', '', #134, #63 ) ;
#124 = ADVANCED_FACE ( 'NONE', ( #101 ), #137, .T. ) ;
#125 = ORIENTED_EDGE ( 'NONE', *, *, #103, .F. ) ;
#126 = AXIS2_PLACEMENT_3D ( 'NONE', #80, #6, #92 ) ;
#127 = DIRECTION ( 'NONE',  ( -1.000000000000000000, 1.224646799147352700E-016, 0.0000000000000000000 ) ) ;
#128 = VERTEX_POINT ( 'NONE', #154 ) ;
#129 = CARTESIAN_POINT ( 'NONE',  ( 0.0000000000000000000, 0.0000000000000000000, 0.0000000000000000000 ) ) ;
#130 = PRODUCT ( '106DOR025-S1', '106DOR025-S1', '', ( #136 ) ) ;
#131 =( NAMED_UNIT ( * ) SI_UNIT ( $, .STERADIAN. ) SOLID_ANGLE_UNIT ( ) );
#132 = DIRECTION ( 'NONE',  ( 1.000000000000000000, 0.0000000000000000000, 0.0000000000000000000 ) ) ;
#133 =( NAMED_UNIT ( * ) PLANE_ANGLE_UNIT ( ) SI_UNIT ( $, .RADIAN. ) );
#134 = PRODUCT_DEFINITION_FORMATION_WITH_SPECIFIED_SOURCE ( 'ANY', '', #130, .NOT_KNOWN. ) ;
#135 = ORIENTED_EDGE ( 'NONE', *, *, #11, .T. ) ;
#136 = PRODUCT_CONTEXT ( 'NONE', #83, 'mechanical' ) ;
#137 = TOROIDAL_SURFACE ( 'NONE', #44, 16.50000000000000000, 2.499999999999998700 ) ;
#138 = AXIS2_PLACEMENT_3D ( 'NONE', #129, #91, #48 ) ;
#139 = ORIENTED_EDGE ( 'NONE', *, *, #112, .T. ) ;
#140 = PRODUCT_RELATED_PRODUCT_CATEGORY ( 'part', '', ( #130 ) ) ;
#141 = ORIENTED_EDGE ( 'NONE', *, *, #11, .F. ) ;
#142 = DIRECTION ( 'NONE',  ( -0.0000000000000000000, -0.0000000000000000000, 1.000000000000000000 ) ) ;
#143 = DIRECTION ( 'NONE',  ( 1.000000000000000000, 0.0000000000000000000, 0.0000000000000000000 ) ) ;
#144 = STYLED_ITEM ( 'NONE', ( #81 ), #100 ) ;
#145 = EDGE_CURVE ( 'NONE', #99, #128, #147, .T. ) ;
#146 = COLOUR_RGB ( '',0.3843137254901960500, 0.3843137254901960500, 0.3843137254901960500 ) ;
#147 = CIRCLE ( 'NONE', #39, 19.00000000000000000 ) ;
#148 = PRESENTATION_LAYER_ASSIGNMENT (  '', '', ( #144 ) ) ;
#149 = CARTESIAN_POINT ( 'NONE',  ( 0.0000000000000000000, 0.0000000000000000000, 0.0000000000000000000 ) ) ;
#150 = DIRECTION ( 'NONE',  ( -0.0000000000000000000, -0.0000000000000000000, 1.000000000000000000 ) ) ;
#151 = DIRECTION ( 'NONE',  ( 0.0000000000000000000, -1.000000000000000000, 0.0000000000000000000 ) ) ;
#152 = CIRCLE ( 'NONE', #76, 14.00000000000000200 ) ;
#153 =( NAMED_UNIT ( * ) SI_UNIT ( $, .STERADIAN. ) SOLID_ANGLE_UNIT ( ) );
#154 = CARTESIAN_POINT ( 'NONE',  ( 19.00000000000000000, 0.0000000000000000000, 0.0000000000000000000 ) ) ;
#155 = SURFACE_STYLE_FILL_AREA ( #10 ) ;
#156 = PRODUCT_DEFINITION_SHAPE ( 'NONE', 'NONE',  #123 ) ;
#157 = ORIENTED_EDGE ( 'NONE', *, *, #103, .T. ) ;
#158 = MECHANICAL_DESIGN_GEOMETRIC_PRESENTATION_REPRESENTATION (  '', ( #144 ), #8 ) ;
ENDSEC;
END-ISO-10303-21;
