ISO-10303-21;
HEADER;
FILE_DESCRIPTION (( 'STEP AP214' ),
    '1' );
FILE_NAME ('402DFL040-Z.step',
    '2017-07-07T09:57:50',
    ( 'install' ),
    ( '' ),
    'SwSTEP 2.0',
    'SolidWorks 2015',
    '' );
FILE_SCHEMA (( 'AUTOMOTIVE_DESIGN' ));
ENDSEC;

DATA;
#1 = ORIENTED_EDGE ( 'NONE', *, *, #223, .F. ) ;
#2 = EDGE_CURVE ( 'NONE', #43, #221, #108, .T. ) ;
#3 = CARTESIAN_POINT ( 'NONE',  ( 0.0000000000000000000, 0.0000000000000000000, -0.9100000000000002500 ) ) ;
#4 = CARTESIAN_POINT ( 'NONE',  ( 0.0000000000000000000, 0.0000000000000000000, 0.0000000000000000000 ) ) ;
#5 = ORIENTED_EDGE ( 'NONE', *, *, #240, .F. ) ;
#6 = LINE ( 'NONE', #166, #133 ) ;
#7 = ORIENTED_EDGE ( 'NONE', *, *, #193, .F. ) ;
#8 = AXIS2_PLACEMENT_3D ( 'NONE', #244, #58, #216 ) ;
#9 = DIRECTION ( 'NONE',  ( 1.000000000000000000, 0.0000000000000000000, 0.0000000000000000000 ) ) ;
#10 = PLANE ( 'NONE',  #88 ) ;
#11 = ORIENTED_EDGE ( 'NONE', *, *, #101, .T. ) ;
#12 =( NAMED_UNIT ( * ) SI_UNIT ( $, .STERADIAN. ) SOLID_ANGLE_UNIT ( ) );
#13 = DIRECTION ( 'NONE',  ( 1.000000000000000000, 0.0000000000000000000, 0.0000000000000000000 ) ) ;
#14 = ORIENTED_EDGE ( 'NONE', *, *, #113, .T. ) ;
#15 = FACE_OUTER_BOUND ( 'NONE', #71, .T. ) ;
#16 = MECHANICAL_DESIGN_GEOMETRIC_PRESENTATION_REPRESENTATION (  '', ( #295 ), #30 ) ;
#17 = FACE_OUTER_BOUND ( 'NONE', #310, .T. ) ;
#18 = EDGE_CURVE ( 'NONE', #38, #291, #222, .T. ) ;
#19 = ORIENTED_EDGE ( 'NONE', *, *, #264, .T. ) ;
#20 =( NAMED_UNIT ( * ) SI_UNIT ( $, .STERADIAN. ) SOLID_ANGLE_UNIT ( ) );
#21 = CIRCLE ( 'NONE', #47, 24.80000000000000100 ) ;
#22 = VECTOR ( 'NONE', #245, 1000.000000000000000 ) ;
#23 = CARTESIAN_POINT ( 'NONE',  ( 22.85000000000000100, 0.0000000000000000000, 0.0000000000000000000 ) ) ;
#24 = DIRECTION ( 'NONE',  ( -0.0000000000000000000, -0.0000000000000000000, 1.000000000000000000 ) ) ;
#25 = MANIFOLD_SOLID_BREP ( 'Rotation1', #163 ) ;
#26 = CARTESIAN_POINT ( 'NONE',  ( 18.28000000000000100, 0.0000000000000000000, -2.910000000000000100 ) ) ;
#27 = ORIENTED_EDGE ( 'NONE', *, *, #113, .F. ) ;
#28 = DIRECTION ( 'NONE',  ( 1.000000000000000000, 0.0000000000000000000, 0.0000000000000000000 ) ) ;
#29 = CARTESIAN_POINT ( 'NONE',  ( 24.80000000000000100, 0.0000000000000000000, 0.0000000000000000000 ) ) ;
#30 =( GEOMETRIC_REPRESENTATION_CONTEXT ( 3 ) GLOBAL_UNCERTAINTY_ASSIGNED_CONTEXT ( ( #281 ) ) GLOBAL_UNIT_ASSIGNED_CONTEXT ( ( #311, #161, #20 ) ) REPRESENTATION_CONTEXT ( 'NONE', 'WORKASPACE' ) );
#31 = CARTESIAN_POINT ( 'NONE',  ( 0.0000000000000000000, 0.0000000000000000000, -0.9099999999999997000 ) ) ;
#32 = DIRECTION ( 'NONE',  ( -0.0000000000000000000, -0.0000000000000000000, 1.000000000000000000 ) ) ;
#33 = FACE_BOUND ( 'NONE', #194, .T. ) ;
#34 = DIRECTION ( 'NONE',  ( -0.0000000000000000000, -0.0000000000000000000, 1.000000000000000000 ) ) ;
#35 = DIRECTION ( 'NONE',  ( -1.000000000000000000, 0.0000000000000000000, -0.0000000000000000000 ) ) ;
#36 = APPLICATION_PROTOCOL_DEFINITION ( 'draft international standard', 'automotive_design', 1998, #63 ) ;
#37 = APPLICATION_CONTEXT ( 'automotive_design' ) ;
#38 = VERTEX_POINT ( 'NONE', #307 ) ;
#39 = EDGE_CURVE ( 'NONE', #111, #221, #21, .T. ) ;
#40 = VECTOR ( 'NONE', #148, 1000.000000000000000 ) ;
#41 = AXIS2_PLACEMENT_3D ( 'NONE', #105, #274, #129 ) ;
#42 = PRODUCT_DEFINITION_SHAPE ( 'NONE', 'NONE',  #247 ) ;
#43 = VERTEX_POINT ( 'NONE', #46 ) ;
#44 = VECTOR ( 'NONE', #64, 1000.000000000000000 ) ;
#45 = FILL_AREA_STYLE_COLOUR ( '', #169 ) ;
#46 = CARTESIAN_POINT ( 'NONE',  ( 23.74084661828536000, 0.0000000000000000000, -2.910000000000000100 ) ) ;
#47 = AXIS2_PLACEMENT_3D ( 'NONE', #92, #258, #228 ) ;
#48 = ORIENTED_EDGE ( 'NONE', *, *, #303, .F. ) ;
#49 = LINE ( 'NONE', #54, #110 ) ;
#50 = DIRECTION ( 'NONE',  ( 0.9063077870366523800, 0.0000000000000000000, 0.4226182617406942200 ) ) ;
#51 = DIRECTION ( 'NONE',  ( -0.0000000000000000000, -0.0000000000000000000, 1.000000000000000000 ) ) ;
#52 = ORIENTED_EDGE ( 'NONE', *, *, #85, .T. ) ;
#53 = EDGE_CURVE ( 'NONE', #38, #221, #202, .T. ) ;
#54 = CARTESIAN_POINT ( 'NONE',  ( 18.28000000000000100, 0.0000000000000000000, 0.0000000000000000000 ) ) ;
#55 = CARTESIAN_POINT ( 'NONE',  ( 0.0000000000000000000, 0.0000000000000000000, -2.910000000000000100 ) ) ;
#56 = DIRECTION ( 'NONE',  ( 1.000000000000000000, 0.0000000000000000000, 0.0000000000000000000 ) ) ;
#57 = CIRCLE ( 'NONE', #156, 18.28000000000000100 ) ;
#58 = DIRECTION ( 'NONE',  ( 0.0000000000000000000, -0.0000000000000000000, 1.000000000000000000 ) ) ;
#59 = AXIS2_PLACEMENT_3D ( 'NONE', #177, #34, #272 ) ;
#60 = CARTESIAN_POINT ( 'NONE',  ( 0.0000000000000000000, 0.0000000000000000000, 0.0000000000000000000 ) ) ;
#61 = SURFACE_STYLE_FILL_AREA ( #220 ) ;
#62 = VERTEX_POINT ( 'NONE', #230 ) ;
#63 = APPLICATION_CONTEXT ( 'automotive_design' ) ;
#64 = DIRECTION ( 'NONE',  ( 0.3420201433256659400, 0.0000000000000000000, 0.9396926207859094300 ) ) ;
#65 = ORIENTED_EDGE ( 'NONE', *, *, #131, .T. ) ;
#66 = VECTOR ( 'NONE', #24, 1000.000000000000000 ) ;
#67 = AXIS2_PLACEMENT_3D ( 'NONE', #288, #142, #314 ) ;
#68 = VERTEX_POINT ( 'NONE', #207 ) ;
#69 = ORIENTED_EDGE ( 'NONE', *, *, #240, .T. ) ;
#70 = EDGE_CURVE ( 'NONE', #172, #282, #139, .T. ) ;
#71 = EDGE_LOOP ( 'NONE', ( #192, #19, #48, #242 ) ) ;
#72 = CIRCLE ( 'NONE', #140, 23.74084661828536000 ) ;
#73 = AXIS2_PLACEMENT_3D ( 'NONE', #60, #246, #125 ) ;
#74 = EDGE_LOOP ( 'NONE', ( #252, #52, #301, #118 ) ) ;
#75 = DIRECTION ( 'NONE',  ( -0.0000000000000000000, -0.0000000000000000000, 1.000000000000000000 ) ) ;
#76 = DIRECTION ( 'NONE',  ( -0.0000000000000000000, -0.0000000000000000000, 1.000000000000000000 ) ) ;
#77 = EDGE_LOOP ( 'NONE', ( #86, #69, #276, #232 ) ) ;
#78 = VECTOR ( 'NONE', #50, 1000.000000000000000 ) ;
#79 = DIRECTION ( 'NONE',  ( 1.000000000000000000, 0.0000000000000000000, 0.0000000000000000000 ) ) ;
#80 = AXIS2_PLACEMENT_3D ( 'NONE', #95, #234, #115 ) ;
#81 = ADVANCED_FACE ( 'NONE', ( #268 ), #253, .T. ) ;
#82 = CYLINDRICAL_SURFACE ( 'NONE', #59, 18.28000000000000100 ) ;
#83 = ORIENTED_EDGE ( 'NONE', *, *, #205, .F. ) ;
#84 = SURFACE_SIDE_STYLE ('',( #61 ) ) ;
#85 = EDGE_CURVE ( 'NONE', #172, #291, #6, .T. ) ;
#86 = ORIENTED_EDGE ( 'NONE', *, *, #260, .F. ) ;
#87 = LINE ( 'NONE', #270, #22 ) ;
#88 = AXIS2_PLACEMENT_3D ( 'NONE', #273, #178, #35 ) ;
#89 = UNCERTAINTY_MEASURE_WITH_UNIT (LENGTH_MEASURE( 1.000000000000000100E-005 ), #106, 'distance_accuracy_value', 'NONE');
#90 = VERTEX_POINT ( 'NONE', #96 ) ;
#91 = DIRECTION ( 'NONE',  ( -0.0000000000000000000, -0.0000000000000000000, 1.000000000000000000 ) ) ;
#92 = CARTESIAN_POINT ( 'NONE',  ( 0.0000000000000000000, 0.0000000000000000000, 0.0000000000000000000 ) ) ;
#93 = AXIS2_PLACEMENT_3D ( 'NONE', #116, #51, #209 ) ;
#94 = CYLINDRICAL_SURFACE ( 'NONE', #287, 18.28000000000000100 ) ;
#95 = CARTESIAN_POINT ( 'NONE',  ( 0.0000000000000000000, 0.0000000000000000000, -2.910000000000000100 ) ) ;
#96 = CARTESIAN_POINT ( 'NONE',  ( 18.28000000000000100, 0.0000000000000000000, -0.9100000000000002500 ) ) ;
#97 = ADVANCED_FACE ( 'NONE', ( #195 ), #123, .F. ) ;
#98 = CARTESIAN_POINT ( 'NONE',  ( 0.0000000000000000000, 0.0000000000000000000, -2.910000000000000100 ) ) ;
#99 = VERTEX_POINT ( 'NONE', #289 ) ;
#100 = DIRECTION ( 'NONE',  ( -0.0000000000000000000, -0.0000000000000000000, 1.000000000000000000 ) ) ;
#101 = EDGE_CURVE ( 'NONE', #282, #38, #188, .T. ) ;
#102 = DIRECTION ( 'NONE',  ( -0.0000000000000000000, -0.0000000000000000000, 1.000000000000000000 ) ) ;
#103 = CIRCLE ( 'NONE', #203, 18.28000000000000100 ) ;
#104 =( GEOMETRIC_REPRESENTATION_CONTEXT ( 3 ) GLOBAL_UNCERTAINTY_ASSIGNED_CONTEXT ( ( #181 ) ) GLOBAL_UNIT_ASSIGNED_CONTEXT ( ( #299, #153, #12 ) ) REPRESENTATION_CONTEXT ( 'NONE', 'WORKASPACE' ) );
#105 = CARTESIAN_POINT ( 'NONE',  ( 0.0000000000000000000, 0.0000000000000000000, 0.0000000000000000000 ) ) ;
#106 =( LENGTH_UNIT ( ) NAMED_UNIT ( * ) SI_UNIT ( .MILLI., .METRE. ) );
#107 = EDGE_LOOP ( 'NONE', ( #226, #159, #204, #138 ) ) ;
#108 = LINE ( 'NONE', #134, #44 ) ;
#109 = AXIS2_PLACEMENT_3D ( 'NONE', #98, #263, #119 ) ;
#110 = VECTOR ( 'NONE', #102, 1000.000000000000000 ) ;
#111 = VERTEX_POINT ( 'NONE', #143 ) ;
#112 = FILL_AREA_STYLE ('',( #45 ) ) ;
#113 = EDGE_CURVE ( 'NONE', #99, #155, #259, .T. ) ;
#114 = LINE ( 'NONE', #144, #183 ) ;
#115 = DIRECTION ( 'NONE',  ( 1.000000000000000000, 0.0000000000000000000, 0.0000000000000000000 ) ) ;
#116 = CARTESIAN_POINT ( 'NONE',  ( 0.0000000000000000000, 0.0000000000000000000, 0.0000000000000000000 ) ) ;
#117 = COLOUR_RGB ( '',0.3843137254901960500, 0.3843137254901960500, 0.3843137254901960500 ) ;
#118 = ORIENTED_EDGE ( 'NONE', *, *, #101, .F. ) ;
#119 = DIRECTION ( 'NONE',  ( 1.000000000000000000, 0.0000000000000000000, 0.0000000000000000000 ) ) ;
#120 = ADVANCED_FACE ( 'NONE', ( #313 ), #305, .F. ) ;
#121 = DIRECTION ( 'NONE',  ( 1.000000000000000000, 0.0000000000000000000, 0.0000000000000000000 ) ) ;
#122 = DIRECTION ( 'NONE',  ( -0.0000000000000000000, -0.0000000000000000000, 1.000000000000000000 ) ) ;
#123 = CYLINDRICAL_SURFACE ( 'NONE', #124, 22.85000000000000100 ) ;
#124 = AXIS2_PLACEMENT_3D ( 'NONE', #208, #235, #191 ) ;
#125 = DIRECTION ( 'NONE',  ( 1.000000000000000000, 0.0000000000000000000, 0.0000000000000000000 ) ) ;
#126 = CARTESIAN_POINT ( 'NONE',  ( -22.85000000000000100, 2.798317936051702300E-015, -0.9092999334022319200 ) ) ;
#127 = ORIENTED_EDGE ( 'NONE', *, *, #162, .F. ) ;
#128 = ORIENTED_EDGE ( 'NONE', *, *, #18, .T. ) ;
#129 = DIRECTION ( 'NONE',  ( 1.000000000000000000, 0.0000000000000000000, 0.0000000000000000000 ) ) ;
#130 =( NAMED_UNIT ( * ) SI_UNIT ( $, .STERADIAN. ) SOLID_ANGLE_UNIT ( ) );
#131 = EDGE_CURVE ( 'NONE', #99, #62, #114, .T. ) ;
#132 = EDGE_LOOP ( 'NONE', ( #83, #127 ) ) ;
#133 = VECTOR ( 'NONE', #75, 1000.000000000000000 ) ;
#134 = CARTESIAN_POINT ( 'NONE',  ( 23.74084661828536000, 0.0000000000000000000, -2.910000000000000100 ) ) ;
#135 = STYLED_ITEM ( 'NONE', ( #309 ), #293 ) ;
#136 = ORIENTED_EDGE ( 'NONE', *, *, #85, .F. ) ;
#137 = SURFACE_STYLE_USAGE ( .BOTH. , #284 ) ;
#138 = ORIENTED_EDGE ( 'NONE', *, *, #39, .F. ) ;
#139 = CIRCLE ( 'NONE', #67, 22.85000000000000100 ) ;
#140 = AXIS2_PLACEMENT_3D ( 'NONE', #238, #100, #265 ) ;
#141 = FACE_OUTER_BOUND ( 'NONE', #285, .T. ) ;
#142 = DIRECTION ( 'NONE',  ( -0.0000000000000000000, -0.0000000000000000000, 1.000000000000000000 ) ) ;
#143 = CARTESIAN_POINT ( 'NONE',  ( -24.80000000000000100, 3.037124061885435900E-015, 0.0000000000000000000 ) ) ;
#144 = CARTESIAN_POINT ( 'NONE',  ( -18.28000000000000100, 2.238654348841361900E-015, 0.0000000000000000000 ) ) ;
#145 = CARTESIAN_POINT ( 'NONE',  ( 0.0000000000000000000, 0.0000000000000000000, -2.910000000000000100 ) ) ;
#146 = ORIENTED_EDGE ( 'NONE', *, *, #205, .T. ) ;
#147 = EDGE_CURVE ( 'NONE', #68, #43, #72, .T. ) ;
#148 = DIRECTION ( 'NONE',  ( -0.9063077870366523800, 1.109906930436757400E-016, 0.4226182617406942200 ) ) ;
#149 = PLANE ( 'NONE',  #8 ) ;
#150 = DIRECTION ( 'NONE',  ( -0.0000000000000000000, -0.0000000000000000000, 1.000000000000000000 ) ) ;
#151 = CIRCLE ( 'NONE', #308, 22.85000000000000100 ) ;
#152 = PRESENTATION_LAYER_ASSIGNMENT (  '', '', ( #135 ) ) ;
#153 =( NAMED_UNIT ( * ) PLANE_ANGLE_UNIT ( ) SI_UNIT ( $, .RADIAN. ) );
#154 = DIRECTION ( 'NONE',  ( 0.0000000000000000000, 0.0000000000000000000, 1.000000000000000000 ) ) ;
#155 = VERTEX_POINT ( 'NONE', #26 ) ;
#156 = AXIS2_PLACEMENT_3D ( 'NONE', #3, #170, #28 ) ;
#157 = LINE ( 'NONE', #214, #40 ) ;
#158 = SHAPE_DEFINITION_REPRESENTATION ( #42, #293 ) ;
#159 = ORIENTED_EDGE ( 'NONE', *, *, #147, .T. ) ;
#160 = SURFACE_STYLE_FILL_AREA ( #112 ) ;
#161 =( NAMED_UNIT ( * ) PLANE_ANGLE_UNIT ( ) SI_UNIT ( $, .RADIAN. ) );
#162 = EDGE_CURVE ( 'NONE', #62, #90, #57, .T. ) ;
#163 = CLOSED_SHELL ( 'NONE', ( #167, #120, #97, #229, #280, #294, #283, #186, #81, #255 ) ) ;
#164 = CIRCLE ( 'NONE', #233, 22.85000000000000100 ) ;
#165 = MECHANICAL_DESIGN_GEOMETRIC_PRESENTATION_REPRESENTATION (  '', ( #135 ), #184 ) ;
#166 = CARTESIAN_POINT ( 'NONE',  ( -22.85000000000000100, 2.798317936051702300E-015, 0.0000000000000000000 ) ) ;
#167 = ADVANCED_FACE ( 'NONE', ( #15 ), #224, .T. ) ;
#168 = ORIENTED_EDGE ( 'NONE', *, *, #303, .T. ) ;
#169 = COLOUR_RGB ( '',0.3843137254901960500, 0.3843137254901960500, 0.3843137254901960500 ) ;
#170 = DIRECTION ( 'NONE',  ( -0.0000000000000000000, -0.0000000000000000000, 1.000000000000000000 ) ) ;
#171 = DIRECTION ( 'NONE',  ( 1.000000000000000000, 0.0000000000000000000, 0.0000000000000000000 ) ) ;
#172 = VERTEX_POINT ( 'NONE', #212 ) ;
#173 = FACE_OUTER_BOUND ( 'NONE', #236, .T. ) ;
#174 = AXIS2_PLACEMENT_3D ( 'NONE', #145, #76, #121 ) ;
#175 = CARTESIAN_POINT ( 'NONE',  ( 0.0000000000000000000, 0.0000000000000000000, -2.910000000000000100 ) ) ;
#176 = PRODUCT_DEFINITION_CONTEXT ( 'detailed design', #37, 'design' ) ;
#177 = CARTESIAN_POINT ( 'NONE',  ( 0.0000000000000000000, 0.0000000000000000000, 0.0000000000000000000 ) ) ;
#178 = DIRECTION ( 'NONE',  ( 0.0000000000000000000, 0.0000000000000000000, -1.000000000000000000 ) ) ;
#179 = ORIENTED_EDGE ( 'NONE', *, *, #53, .T. ) ;
#180 = PRODUCT_CONTEXT ( 'NONE', #63, 'mechanical' ) ;
#181 = UNCERTAINTY_MEASURE_WITH_UNIT (LENGTH_MEASURE( 1.000000000000000100E-005 ), #299, 'distance_accuracy_value', 'NONE');
#182 = EDGE_CURVE ( 'NONE', #155, #90, #49, .T. ) ;
#183 = VECTOR ( 'NONE', #290, 1000.000000000000000 ) ;
#184 =( GEOMETRIC_REPRESENTATION_CONTEXT ( 3 ) GLOBAL_UNCERTAINTY_ASSIGNED_CONTEXT ( ( #89 ) ) GLOBAL_UNIT_ASSIGNED_CONTEXT ( ( #106, #275, #130 ) ) REPRESENTATION_CONTEXT ( 'NONE', 'WORKASPACE' ) );
#185 = ORIENTED_EDGE ( 'NONE', *, *, #18, .F. ) ;
#186 = ADVANCED_FACE ( 'NONE', ( #297 ), #286, .F. ) ;
#187 = ORIENTED_EDGE ( 'NONE', *, *, #131, .F. ) ;
#188 = LINE ( 'NONE', #23, #66 ) ;
#189 = AXIS2_PLACEMENT_3D ( 'NONE', #210, #267, #239 ) ;
#190 = CARTESIAN_POINT ( 'NONE',  ( 24.80000000000000100, 0.0000000000000000000, 0.0000000000000000000 ) ) ;
#191 = DIRECTION ( 'NONE',  ( 1.000000000000000000, 0.0000000000000000000, 0.0000000000000000000 ) ) ;
#192 = ORIENTED_EDGE ( 'NONE', *, *, #251, .T. ) ;
#193 = EDGE_CURVE ( 'NONE', #155, #99, #103, .T. ) ;
#194 = EDGE_LOOP ( 'NONE', ( #257, #14 ) ) ;
#195 = FACE_OUTER_BOUND ( 'NONE', #74, .T. ) ;
#196 = DIRECTION ( 'NONE',  ( -0.0000000000000000000, -0.0000000000000000000, 1.000000000000000000 ) ) ;
#197 = DIRECTION ( 'NONE',  ( 1.000000000000000000, 0.0000000000000000000, 0.0000000000000000000 ) ) ;
#198 = FACE_BOUND ( 'NONE', #132, .T. ) ;
#199 = ORIENTED_EDGE ( 'NONE', *, *, #70, .T. ) ;
#200 = APPLICATION_PROTOCOL_DEFINITION ( 'draft international standard', 'automotive_design', 1998, #37 ) ;
#201 = ORIENTED_EDGE ( 'NONE', *, *, #251, .F. ) ;
#202 = LINE ( 'NONE', #190, #78 ) ;
#203 = AXIS2_PLACEMENT_3D ( 'NONE', #55, #213, #79 ) ;
#204 = ORIENTED_EDGE ( 'NONE', *, *, #2, .T. ) ;
#205 = EDGE_CURVE ( 'NONE', #90, #62, #243, .T. ) ;
#206 = CIRCLE ( 'NONE', #41, 24.80000000000000100 ) ;
#207 = CARTESIAN_POINT ( 'NONE',  ( -23.74084661828536000, 2.972269621949289600E-015, -2.910000000000000100 ) ) ;
#208 = CARTESIAN_POINT ( 'NONE',  ( 0.0000000000000000000, 0.0000000000000000000, 0.0000000000000000000 ) ) ;
#209 = DIRECTION ( 'NONE',  ( 1.000000000000000000, 0.0000000000000000000, 0.0000000000000000000 ) ) ;
#210 = CARTESIAN_POINT ( 'NONE',  ( 0.0000000000000000000, 0.0000000000000000000, 0.0000000000000000000 ) ) ;
#211 = ORIENTED_EDGE ( 'NONE', *, *, #223, .T. ) ;
#212 = CARTESIAN_POINT ( 'NONE',  ( -22.85000000000000100, 2.798317936051702300E-015, -0.9099999999999997000 ) ) ;
#213 = DIRECTION ( 'NONE',  ( -0.0000000000000000000, -0.0000000000000000000, 1.000000000000000000 ) ) ;
#214 = CARTESIAN_POINT ( 'NONE',  ( -24.80000000000000100, 3.037124061885435900E-015, 0.0000000000000000000 ) ) ;
#215 = AXIS2_PLACEMENT_3D ( 'NONE', #269, #122, #296 ) ;
#216 = DIRECTION ( 'NONE',  ( 1.000000000000000000, 0.0000000000000000000, 0.0000000000000000000 ) ) ;
#217 = CIRCLE ( 'NONE', #271, 23.74084661828536000 ) ;
#218 = CARTESIAN_POINT ( 'NONE',  ( 22.85000000000000100, 0.0000000000000000000, -0.9099999999999997000 ) ) ;
#219 = FILL_AREA_STYLE_COLOUR ( '', #117 ) ;
#220 = FILL_AREA_STYLE ('',( #219 ) ) ;
#221 = VERTEX_POINT ( 'NONE', #29 ) ;
#222 = CIRCLE ( 'NONE', #277, 22.85000000000000100 ) ;
#223 = EDGE_CURVE ( 'NONE', #282, #172, #164, .T. ) ;
#224 = CONICAL_SURFACE ( 'NONE', #174, 23.74084661828536000, 0.3490658503988629500 ) ;
#225 = AXIS2_PLACEMENT_3D ( 'NONE', #248, #154, #13 ) ;
#226 = ORIENTED_EDGE ( 'NONE', *, *, #264, .F. ) ;
#227 = CARTESIAN_POINT ( 'NONE',  ( 0.0000000000000000000, 0.0000000000000000000, -0.9092999334022319200 ) ) ;
#228 = DIRECTION ( 'NONE',  ( 1.000000000000000000, 0.0000000000000000000, 0.0000000000000000000 ) ) ;
#229 = ADVANCED_FACE ( 'NONE', ( #173 ), #94, .F. ) ;
#230 = CARTESIAN_POINT ( 'NONE',  ( -18.28000000000000100, 2.238654348841361900E-015, -0.9100000000000002500 ) ) ;
#231 = FACE_OUTER_BOUND ( 'NONE', #249, .T. ) ;
#232 = ORIENTED_EDGE ( 'NONE', *, *, #53, .F. ) ;
#233 = AXIS2_PLACEMENT_3D ( 'NONE', #31, #196, #56 ) ;
#234 = DIRECTION ( 'NONE',  ( -0.0000000000000000000, -0.0000000000000000000, 1.000000000000000000 ) ) ;
#235 = DIRECTION ( 'NONE',  ( -0.0000000000000000000, -0.0000000000000000000, 1.000000000000000000 ) ) ;
#236 = EDGE_LOOP ( 'NONE', ( #27, #65, #254, #300 ) ) ;
#237 = EDGE_LOOP ( 'NONE', ( #201, #266 ) ) ;
#238 = CARTESIAN_POINT ( 'NONE',  ( 0.0000000000000000000, 0.0000000000000000000, -2.910000000000000100 ) ) ;
#239 = DIRECTION ( 'NONE',  ( 1.000000000000000000, 0.0000000000000000000, 0.0000000000000000000 ) ) ;
#240 = EDGE_CURVE ( 'NONE', #291, #111, #157, .T. ) ;
#241 = DIRECTION ( 'NONE',  ( -0.0000000000000000000, -0.0000000000000000000, 1.000000000000000000 ) ) ;
#242 = ORIENTED_EDGE ( 'NONE', *, *, #2, .F. ) ;
#243 = CIRCLE ( 'NONE', #215, 18.28000000000000100 ) ;
#244 = CARTESIAN_POINT ( 'NONE',  ( -23.74084661828536000, 0.0000000000000000000, -2.910000000000000100 ) ) ;
#245 = DIRECTION ( 'NONE',  ( -0.3420201433256659400, 4.188538737676957900E-017, 0.9396926207859094300 ) ) ;
#246 = DIRECTION ( 'NONE',  ( -0.0000000000000000000, -0.0000000000000000000, 1.000000000000000000 ) ) ;
#247 = PRODUCT_DEFINITION ( 'UNKNOWN', '', #262, #176 ) ;
#248 = CARTESIAN_POINT ( 'NONE',  ( 0.0000000000000000000, 0.0000000000000000000, 0.0000000000000000000 ) ) ;
#249 = EDGE_LOOP ( 'NONE', ( #187, #7, #304, #146 ) ) ;
#250 = SURFACE_STYLE_USAGE ( .BOTH. , #84 ) ;
#251 = EDGE_CURVE ( 'NONE', #43, #68, #217, .T. ) ;
#252 = ORIENTED_EDGE ( 'NONE', *, *, #70, .F. ) ;
#253 = CONICAL_SURFACE ( 'NONE', #80, 23.74084661828536000, 0.3490658503988629500 ) ;
#254 = ORIENTED_EDGE ( 'NONE', *, *, #162, .T. ) ;
#255 = ADVANCED_FACE ( 'NONE', ( #278, #33 ), #149, .F. ) ;
#256 = DIRECTION ( 'NONE',  ( 1.000000000000000000, 0.0000000000000000000, 0.0000000000000000000 ) ) ;
#257 = ORIENTED_EDGE ( 'NONE', *, *, #193, .T. ) ;
#258 = DIRECTION ( 'NONE',  ( -0.0000000000000000000, -0.0000000000000000000, 1.000000000000000000 ) ) ;
#259 = CIRCLE ( 'NONE', #109, 18.28000000000000100 ) ;
#260 = EDGE_CURVE ( 'NONE', #291, #38, #151, .T. ) ;
#261 = CYLINDRICAL_SURFACE ( 'NONE', #73, 22.85000000000000100 ) ;
#262 = PRODUCT_DEFINITION_FORMATION_WITH_SPECIFIED_SOURCE ( 'ANY', '', #302, .NOT_KNOWN. ) ;
#263 = DIRECTION ( 'NONE',  ( -0.0000000000000000000, -0.0000000000000000000, 1.000000000000000000 ) ) ;
#264 = EDGE_CURVE ( 'NONE', #68, #111, #87, .T. ) ;
#265 = DIRECTION ( 'NONE',  ( 1.000000000000000000, 0.0000000000000000000, 0.0000000000000000000 ) ) ;
#266 = ORIENTED_EDGE ( 'NONE', *, *, #147, .F. ) ;
#267 = DIRECTION ( 'NONE',  ( -0.0000000000000000000, -0.0000000000000000000, 1.000000000000000000 ) ) ;
#268 = FACE_OUTER_BOUND ( 'NONE', #107, .T. ) ;
#269 = CARTESIAN_POINT ( 'NONE',  ( 0.0000000000000000000, 0.0000000000000000000, -0.9100000000000002500 ) ) ;
#270 = CARTESIAN_POINT ( 'NONE',  ( -23.74084661828536000, 2.907415182013143000E-015, -2.910000000000000100 ) ) ;
#271 = AXIS2_PLACEMENT_3D ( 'NONE', #175, #32, #197 ) ;
#272 = DIRECTION ( 'NONE',  ( 1.000000000000000000, 0.0000000000000000000, 0.0000000000000000000 ) ) ;
#273 = CARTESIAN_POINT ( 'NONE',  ( -18.28000000000000100, 0.0000000000000000000, -0.9100000000000000300 ) ) ;
#274 = DIRECTION ( 'NONE',  ( -0.0000000000000000000, -0.0000000000000000000, 1.000000000000000000 ) ) ;
#275 =( NAMED_UNIT ( * ) PLANE_ANGLE_UNIT ( ) SI_UNIT ( $, .RADIAN. ) );
#276 = ORIENTED_EDGE ( 'NONE', *, *, #39, .T. ) ;
#277 = AXIS2_PLACEMENT_3D ( 'NONE', #227, #91, #256 ) ;
#278 = FACE_OUTER_BOUND ( 'NONE', #237, .T. ) ;
#279 = PRODUCT_RELATED_PRODUCT_CATEGORY ( 'part', '', ( #302 ) ) ;
#280 = ADVANCED_FACE ( 'NONE', ( #231 ), #82, .F. ) ;
#281 = UNCERTAINTY_MEASURE_WITH_UNIT (LENGTH_MEASURE( 1.000000000000000100E-005 ), #311, 'distance_accuracy_value', 'NONE');
#282 = VERTEX_POINT ( 'NONE', #218 ) ;
#283 = ADVANCED_FACE ( 'NONE', ( #17 ), #261, .F. ) ;
#284 = SURFACE_SIDE_STYLE ('',( #160 ) ) ;
#285 = EDGE_LOOP ( 'NONE', ( #211, #199 ) ) ;
#286 = CONICAL_SURFACE ( 'NONE', #189, 24.80000000000000100, 1.134464013796320000 ) ;
#287 = AXIS2_PLACEMENT_3D ( 'NONE', #4, #241, #171 ) ;
#288 = CARTESIAN_POINT ( 'NONE',  ( 0.0000000000000000000, 0.0000000000000000000, -0.9099999999999997000 ) ) ;
#289 = CARTESIAN_POINT ( 'NONE',  ( -18.28000000000000100, 2.238654348841361900E-015, -2.910000000000000100 ) ) ;
#290 = DIRECTION ( 'NONE',  ( -0.0000000000000000000, -0.0000000000000000000, 1.000000000000000000 ) ) ;
#291 = VERTEX_POINT ( 'NONE', #126 ) ;
#292 = PRESENTATION_STYLE_ASSIGNMENT (( #137 ) ) ;
#293 = ADVANCED_BREP_SHAPE_REPRESENTATION ( '402DFL040-Z', ( #25, #225 ), #104 ) ;
#294 = ADVANCED_FACE ( 'NONE', ( #198, #141 ), #10, .F. ) ;
#295 = STYLED_ITEM ( 'NONE', ( #292 ), #25 ) ;
#296 = DIRECTION ( 'NONE',  ( 1.000000000000000000, 0.0000000000000000000, 0.0000000000000000000 ) ) ;
#297 = FACE_OUTER_BOUND ( 'NONE', #306, .T. ) ;
#298 = CARTESIAN_POINT ( 'NONE',  ( 0.0000000000000000000, 0.0000000000000000000, -0.9092999334022319200 ) ) ;
#299 =( LENGTH_UNIT ( ) NAMED_UNIT ( * ) SI_UNIT ( .MILLI., .METRE. ) );
#300 = ORIENTED_EDGE ( 'NONE', *, *, #182, .F. ) ;
#301 = ORIENTED_EDGE ( 'NONE', *, *, #260, .T. ) ;
#302 = PRODUCT ( '402DFL040-Z', '402DFL040-Z', '', ( #180 ) ) ;
#303 = EDGE_CURVE ( 'NONE', #221, #111, #206, .T. ) ;
#304 = ORIENTED_EDGE ( 'NONE', *, *, #182, .T. ) ;
#305 = CONICAL_SURFACE ( 'NONE', #93, 24.80000000000000100, 1.134464013796320000 ) ;
#306 = EDGE_LOOP ( 'NONE', ( #5, #185, #179, #168 ) ) ;
#307 = CARTESIAN_POINT ( 'NONE',  ( 22.85000000000000100, 0.0000000000000000000, -0.9092999334022319200 ) ) ;
#308 = AXIS2_PLACEMENT_3D ( 'NONE', #298, #150, #9 ) ;
#309 = PRESENTATION_STYLE_ASSIGNMENT (( #250 ) ) ;
#310 = EDGE_LOOP ( 'NONE', ( #136, #1, #11, #128 ) ) ;
#311 =( LENGTH_UNIT ( ) NAMED_UNIT ( * ) SI_UNIT ( .MILLI., .METRE. ) );
#312 = PRESENTATION_LAYER_ASSIGNMENT (  '', '', ( #295 ) ) ;
#313 = FACE_OUTER_BOUND ( 'NONE', #77, .T. ) ;
#314 = DIRECTION ( 'NONE',  ( 1.000000000000000000, 0.0000000000000000000, 0.0000000000000000000 ) ) ;
ENDSEC;
END-ISO-10303-21;
