ISO-10303-21;
/* Copyright TRINOS Vakuum-Systeme GmbH */
HEADER;
FILE_DESCRIPTION (( 'STEP AP214' ),
    '1' );
FILE_NAME ('306 DOR 400-S1.step',
    '2012-07-05T19:55:33',
    ( '' ),
    ( '' ),
    'SwSTEP 2.0',
    'SolidWorks 2010',
    '' );
FILE_SCHEMA (( 'AUTOMOTIVE_DESIGN' ));
ENDSEC;

DATA;
#1 = CIRCLE ( 'NONE', #143, 3.494999999999998300 ) ;
#2 = CIRCLE ( 'NONE', #142, 205.5000000000000000 ) ;
#3 = SURFACE_STYLE_FILL_AREA ( #56 ) ;
#4 = ORIENTED_EDGE ( 'NONE', *, *, #136, .F. ) ;
#5 = ORIENTED_EDGE ( 'NONE', *, *, #140, .F. ) ;
#6 = TOROIDAL_SURFACE ( 'NONE', #131, 208.9949999999999800, 3.494999999999997900 ) ;
#7 = ORIENTED_EDGE ( 'NONE', *, *, #139, .F. ) ;
#8 = FACE_OUTER_BOUND ( 'NONE', #11, .T. ) ;
#9 = EDGE_LOOP ( 'NONE', ( #31, #5, #28, #37 ) ) ;
#10 = ORIENTED_EDGE ( 'NONE', *, *, #138, .F. ) ;
#11 = EDGE_LOOP ( 'NONE', ( #4, #26, #21, #7 ) ) ;
#12 = FACE_OUTER_BOUND ( 'NONE', #17, .T. ) ;
#13 = TOROIDAL_SURFACE ( 'NONE', #144, 208.9949999999999800, 3.494999999999997900 ) ;
#14 = TOROIDAL_SURFACE ( 'NONE', #141, 208.9949999999999800, 3.494999999999997900 ) ;
#15 = TOROIDAL_SURFACE ( 'NONE', #145, 208.9949999999999800, 3.494999999999997900 ) ;
#16 = CLOSED_SHELL ( 'NONE', ( #115, #114, #116, #117 ) ) ;
#17 = EDGE_LOOP ( 'NONE', ( #10, #24, #29, #23 ) ) ;
#18 = EDGE_LOOP ( 'NONE', ( #19, #27, #30, #25 ) ) ;
#19 = ORIENTED_EDGE ( 'NONE', *, *, #137, .F. ) ;
#20 = STYLED_ITEM ( 'NONE', ( #32 ), #41 ) ;
#21 = ORIENTED_EDGE ( 'NONE', *, *, #138, .T. ) ;
#22 = SURFACE_STYLE_FILL_AREA ( #102 ) ;
#23 = ORIENTED_EDGE ( 'NONE', *, *, #133, .F. ) ;
#24 = ORIENTED_EDGE ( 'NONE', *, *, #135, .T. ) ;
#25 = ORIENTED_EDGE ( 'NONE', *, *, #140, .T. ) ;
#26 = ORIENTED_EDGE ( 'NONE', *, *, #137, .T. ) ;
#27 = ORIENTED_EDGE ( 'NONE', *, *, #132, .F. ) ;
#28 = ORIENTED_EDGE ( 'NONE', *, *, #133, .T. ) ;
#29 = ORIENTED_EDGE ( 'NONE', *, *, #136, .T. ) ;
#30 = ORIENTED_EDGE ( 'NONE', *, *, #139, .T. ) ;
#31 = ORIENTED_EDGE ( 'NONE', *, *, #135, .F. ) ;
#32 = PRESENTATION_STYLE_ASSIGNMENT (( #100 ) ) ;
#33 = COLOUR_RGB ( '',0.2509803921568627400, 0.2509803921568627400, 0.2509803921568627400 ) ;
#34 =( GEOMETRIC_REPRESENTATION_CONTEXT ( 3 ) GLOBAL_UNCERTAINTY_ASSIGNED_CONTEXT ( ( #40 ) ) GLOBAL_UNIT_ASSIGNED_CONTEXT ( ( #99, #98, #97 ) ) REPRESENTATION_CONTEXT ( 'NONE', 'WORKASPACE' ) );
#35 = FACE_OUTER_BOUND ( 'NONE', #18, .T. ) ;
#36 = FACE_OUTER_BOUND ( 'NONE', #9, .T. ) ;
#37 = ORIENTED_EDGE ( 'NONE', *, *, #132, .T. ) ;
#38 = ADVANCED_BREP_SHAPE_REPRESENTATION ( '306 DOR 400-S1', ( #41, #154 ), #124 ) ;
#39 = UNCERTAINTY_MEASURE_WITH_UNIT (LENGTH_MEASURE( 1.000000000000000100E-005 ), #67, 'distance_accuracy_value', 'NONE');
#40 = UNCERTAINTY_MEASURE_WITH_UNIT (LENGTH_MEASURE( 1.000000000000000100E-005 ), #99, 'distance_accuracy_value', 'NONE');
#41 = MANIFOLD_SOLID_BREP ( 'Rotation1', #16 ) ;
#42 = UNCERTAINTY_MEASURE_WITH_UNIT (LENGTH_MEASURE( 1.000000000000000100E-005 ), #50, 'distance_accuracy_value', 'NONE');
#43 = APPLICATION_PROTOCOL_DEFINITION ( 'draft international standard', 'automotive_design', 1998, #46 ) ;
#44 = APPLICATION_CONTEXT ( 'automotive_design' ) ;
#45 = SURFACE_SIDE_STYLE ('',( #3 ) ) ;
#46 = APPLICATION_CONTEXT ( 'automotive_design' ) ;
#47 = PRODUCT_CONTEXT ( 'NONE', #46, 'mechanical' ) ;
#48 = APPLICATION_PROTOCOL_DEFINITION ( 'draft international standard', 'automotive_design', 1998, #44 ) ;
#49 = SURFACE_STYLE_USAGE ( .BOTH. , #45 ) ;
#50 =( LENGTH_UNIT ( ) NAMED_UNIT ( * ) SI_UNIT ( .MILLI., .METRE. ) );
#51 =( NAMED_UNIT ( * ) PLANE_ANGLE_UNIT ( ) SI_UNIT ( $, .RADIAN. ) );
#52 = CARTESIAN_POINT ( 'NONE',  ( 0.0000000000000000000, 0.0000000000000000000, 0.0000000000000000000 ) ) ;
#53 = DIRECTION ( 'NONE',  ( 0.0000000000000000000, 0.0000000000000000000, 1.000000000000000000 ) ) ;
#54 = DIRECTION ( 'NONE',  ( 1.000000000000000000, 0.0000000000000000000, 0.0000000000000000000 ) ) ;
#55 =( NAMED_UNIT ( * ) SI_UNIT ( $, .STERADIAN. ) SOLID_ANGLE_UNIT ( ) );
#56 = FILL_AREA_STYLE ('',( #57 ) ) ;
#57 = FILL_AREA_STYLE_COLOUR ( '', #125 ) ;
#58 =( NAMED_UNIT ( * ) SI_UNIT ( $, .STERADIAN. ) SOLID_ANGLE_UNIT ( ) );
#59 = DIRECTION ( 'NONE',  ( 0.0000000000000000000, -1.224646799147349800E-016, 1.000000000000000000 ) ) ;
#60 = DIRECTION ( 'NONE',  ( -0.0000000000000000000, 1.000000000000000000, 1.224646799147353200E-016 ) ) ;
#61 =( NAMED_UNIT ( * ) PLANE_ANGLE_UNIT ( ) SI_UNIT ( $, .RADIAN. ) );
#62 = CARTESIAN_POINT ( 'NONE',  ( 0.0000000000000000000, 2.559450577878010600E-014, -208.9949999999999800 ) ) ;
#63 = DIRECTION ( 'NONE',  ( 0.0000000000000000000, 0.0000000000000000000, 1.000000000000000000 ) ) ;
#64 = DIRECTION ( 'NONE',  ( -1.000000000000000000, -0.0000000000000000000, -0.0000000000000000000 ) ) ;
#65 = DIRECTION ( 'NONE',  ( 0.0000000000000000000, -1.224646799147349800E-016, 1.000000000000000000 ) ) ;
#66 = DIRECTION ( 'NONE',  ( -0.0000000000000000000, 1.000000000000000000, 1.224646799147353200E-016 ) ) ;
#67 =( LENGTH_UNIT ( ) NAMED_UNIT ( * ) SI_UNIT ( .MILLI., .METRE. ) );
#68 = CARTESIAN_POINT ( 'NONE',  ( 0.0000000000000000000, 2.559450577878010600E-014, -208.9949999999999800 ) ) ;
#69 = DIRECTION ( 'NONE',  ( 0.0000000000000000000, 0.0000000000000000000, 1.000000000000000000 ) ) ;
#70 = DIRECTION ( 'NONE',  ( -1.000000000000000000, -0.0000000000000000000, -0.0000000000000000000 ) ) ;
#71 = CARTESIAN_POINT ( 'NONE',  ( 4.280140563019996800E-016, 0.0000000000000000000, 0.0000000000000000000 ) ) ;
#72 = DIRECTION ( 'NONE',  ( 0.0000000000000000000, 0.0000000000000000000, -1.000000000000000000 ) ) ;
#73 = DIRECTION ( 'NONE',  ( 0.0000000000000000000, -1.000000000000000000, 0.0000000000000000000 ) ) ;
#74 = CARTESIAN_POINT ( 'NONE',  ( 0.0000000000000000000, 0.0000000000000000000, 208.9949999999999800 ) ) ;
#75 = DIRECTION ( 'NONE',  ( 0.0000000000000000000, 0.0000000000000000000, 1.000000000000000000 ) ) ;
#76 = DIRECTION ( 'NONE',  ( -1.000000000000000000, -0.0000000000000000000, -0.0000000000000000000 ) ) ;
#77 = CARTESIAN_POINT ( 'NONE',  ( 0.0000000000000000000, 0.0000000000000000000, 0.0000000000000000000 ) ) ;
#78 = DIRECTION ( 'NONE',  ( 0.0000000000000000000, 0.0000000000000000000, 1.000000000000000000 ) ) ;
#79 = DIRECTION ( 'NONE',  ( -1.000000000000000000, -0.0000000000000000000, -0.0000000000000000000 ) ) ;
#80 = CARTESIAN_POINT ( 'NONE',  ( 4.280140563019996800E-016, 0.0000000000000000000, 0.0000000000000000000 ) ) ;
#81 = DIRECTION ( 'NONE',  ( 0.0000000000000000000, 0.0000000000000000000, -1.000000000000000000 ) ) ;
#82 = DIRECTION ( 'NONE',  ( 0.0000000000000000000, -1.000000000000000000, 0.0000000000000000000 ) ) ;
#83 = CARTESIAN_POINT ( 'NONE',  ( 0.0000000000000000000, 0.0000000000000000000, 0.0000000000000000000 ) ) ;
#84 = DIRECTION ( 'NONE',  ( 0.0000000000000000000, 0.0000000000000000000, 1.000000000000000000 ) ) ;
#85 = CARTESIAN_POINT ( 'NONE',  ( 0.0000000000000000000, 0.0000000000000000000, 208.9949999999999800 ) ) ;
#86 = CARTESIAN_POINT ( 'NONE',  ( 0.0000000000000000000, 0.0000000000000000000, 0.0000000000000000000 ) ) ;
#87 = DIRECTION ( 'NONE',  ( 0.0000000000000000000, 0.0000000000000000000, 1.000000000000000000 ) ) ;
#88 = CARTESIAN_POINT ( 'NONE',  ( 0.0000000000000000000, 0.0000000000000000000, 0.0000000000000000000 ) ) ;
#89 = DIRECTION ( 'NONE',  ( 0.0000000000000000000, 0.0000000000000000000, 1.000000000000000000 ) ) ;
#90 = CARTESIAN_POINT ( 'NONE',  ( 0.0000000000000000000, 0.0000000000000000000, 0.0000000000000000000 ) ) ;
#91 = DIRECTION ( 'NONE',  ( 0.0000000000000000000, 0.0000000000000000000, 1.000000000000000000 ) ) ;
#92 = DIRECTION ( 'NONE',  ( -1.000000000000000000, -0.0000000000000000000, -0.0000000000000000000 ) ) ;
#93 = DIRECTION ( 'NONE',  ( -1.000000000000000000, -0.0000000000000000000, -0.0000000000000000000 ) ) ;
#94 = DIRECTION ( 'NONE',  ( -1.000000000000000000, -0.0000000000000000000, -0.0000000000000000000 ) ) ;
#95 = CARTESIAN_POINT ( 'NONE',  ( 0.0000000000000000000, 0.0000000000000000000, 212.4899999999999800 ) ) ;
#96 = CARTESIAN_POINT ( 'NONE',  ( 0.0000000000000000000, 0.0000000000000000000, 0.0000000000000000000 ) ) ;
#97 =( NAMED_UNIT ( * ) SI_UNIT ( $, .STERADIAN. ) SOLID_ANGLE_UNIT ( ) );
#98 =( NAMED_UNIT ( * ) PLANE_ANGLE_UNIT ( ) SI_UNIT ( $, .RADIAN. ) );
#99 =( LENGTH_UNIT ( ) NAMED_UNIT ( * ) SI_UNIT ( .MILLI., .METRE. ) );
#100 = SURFACE_STYLE_USAGE ( .BOTH. , #101 ) ;
#101 = SURFACE_SIDE_STYLE ('',( #22 ) ) ;
#102 = FILL_AREA_STYLE ('',( #109 ) ) ;
#103 = CARTESIAN_POINT ( 'NONE',  ( 0.0000000000000000000, 0.0000000000000000000, 205.5000000000000000 ) ) ;
#104 = VERTEX_POINT ( 'NONE', #107 ) ;
#105 = VERTEX_POINT ( 'NONE', #111 ) ;
#106 = VERTEX_POINT ( 'NONE', #95 ) ;
#107 = CARTESIAN_POINT ( 'NONE',  ( 0.0000000000000000000, 2.516649172247810800E-014, -205.5000000000000000 ) ) ;
#108 = VERTEX_POINT ( 'NONE', #103 ) ;
#109 = FILL_AREA_STYLE_COLOUR ( '', #33 ) ;
#110 = DIRECTION ( 'NONE',  ( -1.000000000000000000, -0.0000000000000000000, -0.0000000000000000000 ) ) ;
#111 = CARTESIAN_POINT ( 'NONE',  ( 0.0000000000000000000, 2.602251983508210500E-014, -212.4899999999999800 ) ) ;
#112 = PRODUCT_DEFINITION_CONTEXT ( 'detailed design', #44, 'design' ) ;
#113 = PRODUCT_DEFINITION_SHAPE ( 'NONE', 'NONE',  #155 ) ;
#114 = ADVANCED_FACE ( 'NONE', ( #8 ), #6, .T. ) ;
#115 = ADVANCED_FACE ( 'NONE', ( #12 ), #14, .T. ) ;
#116 = ADVANCED_FACE ( 'NONE', ( #35 ), #13, .T. ) ;
#117 = ADVANCED_FACE ( 'NONE', ( #36 ), #15, .T. ) ;
#118 = CIRCLE ( 'NONE', #147, 212.4899999999999800 ) ;
#119 = CIRCLE ( 'NONE', #146, 3.494999999999998300 ) ;
#120 = CIRCLE ( 'NONE', #149, 212.4899999999999800 ) ;
#121 = CIRCLE ( 'NONE', #148, 3.494999999999998300 ) ;
#122 = CIRCLE ( 'NONE', #151, 205.5000000000000000 ) ;
#123 = CIRCLE ( 'NONE', #150, 3.494999999999998300 ) ;
#124 =( GEOMETRIC_REPRESENTATION_CONTEXT ( 3 ) GLOBAL_UNCERTAINTY_ASSIGNED_CONTEXT ( ( #39 ) ) GLOBAL_UNIT_ASSIGNED_CONTEXT ( ( #67, #61, #58 ) ) REPRESENTATION_CONTEXT ( 'NONE', 'WORKASPACE' ) );
#125 = COLOUR_RGB ( '',0.2509803921568627400, 0.2509803921568627400, 0.2509803921568627400 ) ;
#126 = PRESENTATION_STYLE_ASSIGNMENT (( #49 ) ) ;
#127 = STYLED_ITEM ( 'NONE', ( #126 ), #38 ) ;
#128 =( GEOMETRIC_REPRESENTATION_CONTEXT ( 3 ) GLOBAL_UNCERTAINTY_ASSIGNED_CONTEXT ( ( #42 ) ) GLOBAL_UNIT_ASSIGNED_CONTEXT ( ( #50, #51, #55 ) ) REPRESENTATION_CONTEXT ( 'NONE', 'WORKASPACE' ) );
#129 = SHAPE_DEFINITION_REPRESENTATION ( #113, #38 ) ;
#130 = PRESENTATION_LAYER_ASSIGNMENT (  '', '', ( #20 ) ) ;
#131 = AXIS2_PLACEMENT_3D ( 'NONE', #96, #110, #91 ) ;
#132 = EDGE_CURVE ( 'NONE', #108, #106, #1, .T. ) ;
#133 = EDGE_CURVE ( 'NONE', #104, #108, #2, .T. ) ;
#134 = MECHANICAL_DESIGN_GEOMETRIC_PRESENTATION_REPRESENTATION (  '', ( #20 ), #34 ) ;
#135 = EDGE_CURVE ( 'NONE', #105, #106, #118, .T. ) ;
#136 = EDGE_CURVE ( 'NONE', #106, #108, #119, .T. ) ;
#137 = EDGE_CURVE ( 'NONE', #106, #105, #120, .T. ) ;
#138 = EDGE_CURVE ( 'NONE', #105, #104, #121, .T. ) ;
#139 = EDGE_CURVE ( 'NONE', #108, #104, #122, .T. ) ;
#140 = EDGE_CURVE ( 'NONE', #104, #105, #123, .T. ) ;
#141 = AXIS2_PLACEMENT_3D ( 'NONE', #90, #94, #89 ) ;
#142 = AXIS2_PLACEMENT_3D ( 'NONE', #80, #79, #78 ) ;
#143 = AXIS2_PLACEMENT_3D ( 'NONE', #85, #82, #81 ) ;
#144 = AXIS2_PLACEMENT_3D ( 'NONE', #88, #92, #87 ) ;
#145 = AXIS2_PLACEMENT_3D ( 'NONE', #86, #93, #84 ) ;
#146 = AXIS2_PLACEMENT_3D ( 'NONE', #74, #73, #72 ) ;
#147 = AXIS2_PLACEMENT_3D ( 'NONE', #83, #76, #75 ) ;
#148 = AXIS2_PLACEMENT_3D ( 'NONE', #68, #66, #65 ) ;
#149 = AXIS2_PLACEMENT_3D ( 'NONE', #77, #70, #69 ) ;
#150 = AXIS2_PLACEMENT_3D ( 'NONE', #62, #60, #59 ) ;
#151 = AXIS2_PLACEMENT_3D ( 'NONE', #71, #64, #63 ) ;
#152 = PRESENTATION_LAYER_ASSIGNMENT (  '', '', ( #127 ) ) ;
#153 = MECHANICAL_DESIGN_GEOMETRIC_PRESENTATION_REPRESENTATION (  '', ( #127 ), #128 ) ;
#154 = AXIS2_PLACEMENT_3D ( 'NONE', #52, #53, #54 ) ;
#155 = PRODUCT_DEFINITION ( 'UNKNOWN', '', #156, #112 ) ;
#156 = PRODUCT_DEFINITION_FORMATION_WITH_SPECIFIED_SOURCE ( 'ANY', '', #158, .NOT_KNOWN. ) ;
#157 = PRODUCT_RELATED_PRODUCT_CATEGORY ( 'part', '', ( #158 ) ) ;
#158 = PRODUCT ( '306 DOR 400-S1', '306 DOR 400-S1', '', ( #47 ) ) ;
ENDSEC;
END-ISO-10303-21;
