ISO-10303-21;
HEADER;
FILE_DESCRIPTION (( 'STEP AP214' ),
    '1' );
FILE_NAME ('303DOR100-S1.step',
    '2017-07-07T05:03:16',
    ( 'install' ),
    ( '' ),
    'SwSTEP 2.0',
    'SolidWorks 2015',
    '' );
FILE_SCHEMA (( 'AUTOMOTIVE_DESIGN' ));
ENDSEC;

DATA;
#1 = PRODUCT_DEFINITION ( 'UNKNOWN', '', #131, #28 ) ;
#2 = TOROIDAL_SURFACE ( 'NONE', #72, 56.16499999999999900, 2.665000000000001800 ) ;
#3 = AXIS2_PLACEMENT_3D ( 'NONE', #24, #75, #52 ) ;
#4 = FACE_OUTER_BOUND ( 'NONE', #63, .T. ) ;
#5 = CIRCLE ( 'NONE', #81, 53.50000000000000000 ) ;
#6 = CARTESIAN_POINT ( 'NONE',  ( 0.0000000000000000000, 0.0000000000000000000, 0.0000000000000000000 ) ) ;
#7 = DIRECTION ( 'NONE',  ( -1.000000000000000000, 0.0000000000000000000, 0.0000000000000000000 ) ) ;
#8 = CIRCLE ( 'NONE', #82, 53.50000000000000000 ) ;
#9 = DIRECTION ( 'NONE',  ( -1.224646799147353200E-016, 1.000000000000000000, 0.0000000000000000000 ) ) ;
#10 = CIRCLE ( 'NONE', #108, 58.82999999999999800 ) ;
#11 = ORIENTED_EDGE ( 'NONE', *, *, #45, .T. ) ;
#12 = EDGE_CURVE ( 'NONE', #113, #66, #123, .T. ) ;
#13 = CIRCLE ( 'NONE', #147, 58.82999999999999800 ) ;
#14 = SURFACE_SIDE_STYLE ('',( #133 ) ) ;
#15 = ORIENTED_EDGE ( 'NONE', *, *, #117, .T. ) ;
#16 =( NAMED_UNIT ( * ) SI_UNIT ( $, .STERADIAN. ) SOLID_ANGLE_UNIT ( ) );
#17 = DIRECTION ( 'NONE',  ( -0.0000000000000000000, -0.0000000000000000000, -1.000000000000000000 ) ) ;
#18 = SURFACE_STYLE_FILL_AREA ( #138 ) ;
#19 = PRODUCT_CONTEXT ( 'NONE', #78, 'mechanical' ) ;
#20 = EDGE_LOOP ( 'NONE', ( #50, #88, #100, #60 ) ) ;
#21 = CARTESIAN_POINT ( 'NONE',  ( 0.0000000000000000000, 0.0000000000000000000, 0.0000000000000000000 ) ) ;
#22 = UNCERTAINTY_MEASURE_WITH_UNIT (LENGTH_MEASURE( 1.000000000000000100E-005 ), #90, 'distance_accuracy_value', 'NONE');
#23 = DIRECTION ( 'NONE',  ( -0.0000000000000000000, -0.0000000000000000000, -1.000000000000000000 ) ) ;
#24 = CARTESIAN_POINT ( 'NONE',  ( 0.0000000000000000000, 0.0000000000000000000, 0.0000000000000000000 ) ) ;
#25 = DIRECTION ( 'NONE',  ( 0.0000000000000000000, 0.0000000000000000000, -1.000000000000000000 ) ) ;
#26 = AXIS2_PLACEMENT_3D ( 'NONE', #32, #9, #153 ) ;
#27 = ADVANCED_FACE ( 'NONE', ( #83 ), #127, .T. ) ;
#28 = PRODUCT_DEFINITION_CONTEXT ( 'detailed design', #57, 'design' ) ;
#29 = SURFACE_STYLE_USAGE ( .BOTH. , #151 ) ;
#30 =( LENGTH_UNIT ( ) NAMED_UNIT ( * ) SI_UNIT ( .MILLI., .METRE. ) );
#31 = ORIENTED_EDGE ( 'NONE', *, *, #114, .F. ) ;
#32 = CARTESIAN_POINT ( 'NONE',  ( 56.16499999999999900, 6.878228747411109200E-015, 0.0000000000000000000 ) ) ;
#33 = DIRECTION ( 'NONE',  ( -1.000000000000000000, 0.0000000000000000000, 0.0000000000000000000 ) ) ;
#34 = APPLICATION_PROTOCOL_DEFINITION ( 'draft international standard', 'automotive_design', 1998, #78 ) ;
#35 = DIRECTION ( 'NONE',  ( -1.000000000000000000, 0.0000000000000000000, 0.0000000000000000000 ) ) ;
#36 = SHAPE_DEFINITION_REPRESENTATION ( #120, #92 ) ;
#37 = AXIS2_PLACEMENT_3D ( 'NONE', #98, #135, #25 ) ;
#38 = DIRECTION ( 'NONE',  ( -0.0000000000000000000, -0.0000000000000000000, -1.000000000000000000 ) ) ;
#39 =( GEOMETRIC_REPRESENTATION_CONTEXT ( 3 ) GLOBAL_UNCERTAINTY_ASSIGNED_CONTEXT ( ( #56 ) ) GLOBAL_UNIT_ASSIGNED_CONTEXT ( ( #30, #126, #115 ) ) REPRESENTATION_CONTEXT ( 'NONE', 'WORKASPACE' ) );
#40 = PRESENTATION_STYLE_ASSIGNMENT (( #134 ) ) ;
#41 = ORIENTED_EDGE ( 'NONE', *, *, #62, .T. ) ;
#42 = PRODUCT_RELATED_PRODUCT_CATEGORY ( 'part', '', ( #157 ) ) ;
#43 = DIRECTION ( 'NONE',  ( -0.0000000000000000000, -0.0000000000000000000, -1.000000000000000000 ) ) ;
#44 = CARTESIAN_POINT ( 'NONE',  ( -56.16499999999999900, 0.0000000000000000000, 0.0000000000000000000 ) ) ;
#45 = EDGE_CURVE ( 'NONE', #53, #59, #55, .T. ) ;
#46 = FILL_AREA_STYLE_COLOUR ( '', #137 ) ;
#47 = FILL_AREA_STYLE_COLOUR ( '', #73 ) ;
#48 = CARTESIAN_POINT ( 'NONE',  ( -58.82999999999999800, 0.0000000000000000000, 0.0000000000000000000 ) ) ;
#49 = CLOSED_SHELL ( 'NONE', ( #149, #27, #95, #150 ) ) ;
#50 = ORIENTED_EDGE ( 'NONE', *, *, #104, .F. ) ;
#51 = MECHANICAL_DESIGN_GEOMETRIC_PRESENTATION_REPRESENTATION (  '', ( #61 ), #39 ) ;
#52 = DIRECTION ( 'NONE',  ( 1.000000000000000000, 0.0000000000000000000, 0.0000000000000000000 ) ) ;
#53 = VERTEX_POINT ( 'NONE', #48 ) ;
#54 = PRESENTATION_LAYER_ASSIGNMENT (  '', '', ( #61 ) ) ;
#55 = CIRCLE ( 'NONE', #37, 2.665000000000001800 ) ;
#56 = UNCERTAINTY_MEASURE_WITH_UNIT (LENGTH_MEASURE( 1.000000000000000100E-005 ), #30, 'distance_accuracy_value', 'NONE');
#57 = APPLICATION_CONTEXT ( 'automotive_design' ) ;
#58 = DIRECTION ( 'NONE',  ( -0.0000000000000000000, -0.0000000000000000000, -1.000000000000000000 ) ) ;
#59 = VERTEX_POINT ( 'NONE', #129 ) ;
#60 = ORIENTED_EDGE ( 'NONE', *, *, #12, .T. ) ;
#61 = STYLED_ITEM ( 'NONE', ( #140 ), #92 ) ;
#62 = EDGE_CURVE ( 'NONE', #66, #53, #13, .T. ) ;
#63 = EDGE_LOOP ( 'NONE', ( #31, #41, #11, #103 ) ) ;
#64 = DIRECTION ( 'NONE',  ( -1.000000000000000000, 0.0000000000000000000, 0.0000000000000000000 ) ) ;
#65 = CARTESIAN_POINT ( 'NONE',  ( 0.0000000000000000000, 0.0000000000000000000, 0.0000000000000000000 ) ) ;
#66 = VERTEX_POINT ( 'NONE', #107 ) ;
#67 = AXIS2_PLACEMENT_3D ( 'NONE', #110, #86, #156 ) ;
#68 = TOROIDAL_SURFACE ( 'NONE', #67, 56.16499999999999900, 2.665000000000001800 ) ;
#69 = ORIENTED_EDGE ( 'NONE', *, *, #12, .F. ) ;
#70 = DIRECTION ( 'NONE',  ( -0.0000000000000000000, -0.0000000000000000000, -1.000000000000000000 ) ) ;
#71 = EDGE_LOOP ( 'NONE', ( #145, #69, #15, #152 ) ) ;
#72 = AXIS2_PLACEMENT_3D ( 'NONE', #109, #70, #33 ) ;
#73 = COLOUR_RGB ( '',0.3843137254901960500, 0.3843137254901960500, 0.3843137254901960500 ) ;
#74 =( GEOMETRIC_REPRESENTATION_CONTEXT ( 3 ) GLOBAL_UNCERTAINTY_ASSIGNED_CONTEXT ( ( #119 ) ) GLOBAL_UNIT_ASSIGNED_CONTEXT ( ( #102, #141, #125 ) ) REPRESENTATION_CONTEXT ( 'NONE', 'WORKASPACE' ) );
#75 = DIRECTION ( 'NONE',  ( 0.0000000000000000000, 0.0000000000000000000, 1.000000000000000000 ) ) ;
#76 = EDGE_LOOP ( 'NONE', ( #77, #79, #105, #143 ) ) ;
#77 = ORIENTED_EDGE ( 'NONE', *, *, #45, .F. ) ;
#78 = APPLICATION_CONTEXT ( 'automotive_design' ) ;
#79 = ORIENTED_EDGE ( 'NONE', *, *, #104, .T. ) ;
#80 = DIRECTION ( 'NONE',  ( 0.0000000000000000000, -1.000000000000000000, 0.0000000000000000000 ) ) ;
#81 = AXIS2_PLACEMENT_3D ( 'NONE', #155, #58, #101 ) ;
#82 = AXIS2_PLACEMENT_3D ( 'NONE', #84, #38, #132 ) ;
#83 = FACE_OUTER_BOUND ( 'NONE', #76, .T. ) ;
#84 = CARTESIAN_POINT ( 'NONE',  ( 0.0000000000000000000, 0.0000000000000000000, 3.263683719727698600E-016 ) ) ;
#85 = CARTESIAN_POINT ( 'NONE',  ( 0.0000000000000000000, 0.0000000000000000000, 0.0000000000000000000 ) ) ;
#86 = DIRECTION ( 'NONE',  ( -0.0000000000000000000, -0.0000000000000000000, -1.000000000000000000 ) ) ;
#87 = AXIS2_PLACEMENT_3D ( 'NONE', #146, #154, #139 ) ;
#88 = ORIENTED_EDGE ( 'NONE', *, *, #94, .F. ) ;
#89 = FACE_OUTER_BOUND ( 'NONE', #20, .T. ) ;
#90 =( LENGTH_UNIT ( ) NAMED_UNIT ( * ) SI_UNIT ( .MILLI., .METRE. ) );
#91 = APPLICATION_PROTOCOL_DEFINITION ( 'draft international standard', 'automotive_design', 1998, #57 ) ;
#92 = ADVANCED_BREP_SHAPE_REPRESENTATION ( '303DOR100-S1', ( #93, #3 ), #74 ) ;
#93 = MANIFOLD_SOLID_BREP ( 'Rotation1', #49 ) ;
#94 = EDGE_CURVE ( 'NONE', #59, #53, #148, .T. ) ;
#95 = ADVANCED_FACE ( 'NONE', ( #89 ), #118, .T. ) ;
#96 = AXIS2_PLACEMENT_3D ( 'NONE', #6, #97, #112 ) ;
#97 = DIRECTION ( 'NONE',  ( -0.0000000000000000000, -0.0000000000000000000, -1.000000000000000000 ) ) ;
#98 = CARTESIAN_POINT ( 'NONE',  ( -56.16499999999999900, 0.0000000000000000000, 0.0000000000000000000 ) ) ;
#99 = DIRECTION ( 'NONE',  ( 0.0000000000000000000, 0.0000000000000000000, -1.000000000000000000 ) ) ;
#100 = ORIENTED_EDGE ( 'NONE', *, *, #130, .T. ) ;
#101 = DIRECTION ( 'NONE',  ( -1.000000000000000000, 0.0000000000000000000, 0.0000000000000000000 ) ) ;
#102 =( LENGTH_UNIT ( ) NAMED_UNIT ( * ) SI_UNIT ( .MILLI., .METRE. ) );
#103 = ORIENTED_EDGE ( 'NONE', *, *, #117, .F. ) ;
#104 = EDGE_CURVE ( 'NONE', #53, #66, #10, .T. ) ;
#105 = ORIENTED_EDGE ( 'NONE', *, *, #114, .T. ) ;
#106 = FACE_OUTER_BOUND ( 'NONE', #71, .T. ) ;
#107 = CARTESIAN_POINT ( 'NONE',  ( 58.82999999999999800, 7.204597119383878400E-015, 0.0000000000000000000 ) ) ;
#108 = AXIS2_PLACEMENT_3D ( 'NONE', #65, #43, #64 ) ;
#109 = CARTESIAN_POINT ( 'NONE',  ( 0.0000000000000000000, 0.0000000000000000000, 0.0000000000000000000 ) ) ;
#110 = CARTESIAN_POINT ( 'NONE',  ( 0.0000000000000000000, 0.0000000000000000000, 0.0000000000000000000 ) ) ;
#111 = AXIS2_PLACEMENT_3D ( 'NONE', #44, #80, #99 ) ;
#112 = DIRECTION ( 'NONE',  ( -1.000000000000000000, 0.0000000000000000000, 0.0000000000000000000 ) ) ;
#113 = VERTEX_POINT ( 'NONE', #122 ) ;
#114 = EDGE_CURVE ( 'NONE', #66, #113, #158, .T. ) ;
#115 =( NAMED_UNIT ( * ) SI_UNIT ( $, .STERADIAN. ) SOLID_ANGLE_UNIT ( ) );
#116 =( GEOMETRIC_REPRESENTATION_CONTEXT ( 3 ) GLOBAL_UNCERTAINTY_ASSIGNED_CONTEXT ( ( #22 ) ) GLOBAL_UNIT_ASSIGNED_CONTEXT ( ( #90, #142, #16 ) ) REPRESENTATION_CONTEXT ( 'NONE', 'WORKASPACE' ) );
#117 = EDGE_CURVE ( 'NONE', #113, #59, #8, .T. ) ;
#118 = TOROIDAL_SURFACE ( 'NONE', #96, 56.16499999999999900, 2.665000000000001800 ) ;
#119 = UNCERTAINTY_MEASURE_WITH_UNIT (LENGTH_MEASURE( 1.000000000000000100E-005 ), #102, 'distance_accuracy_value', 'NONE');
#120 = PRODUCT_DEFINITION_SHAPE ( 'NONE', 'NONE',  #1 ) ;
#121 = MECHANICAL_DESIGN_GEOMETRIC_PRESENTATION_REPRESENTATION (  '', ( #136 ), #116 ) ;
#122 = CARTESIAN_POINT ( 'NONE',  ( 53.50000000000000000, 6.551860375438339100E-015, 0.0000000000000000000 ) ) ;
#123 = CIRCLE ( 'NONE', #26, 2.665000000000000900 ) ;
#124 = PRESENTATION_LAYER_ASSIGNMENT (  '', '', ( #136 ) ) ;
#125 =( NAMED_UNIT ( * ) SI_UNIT ( $, .STERADIAN. ) SOLID_ANGLE_UNIT ( ) );
#126 =( NAMED_UNIT ( * ) PLANE_ANGLE_UNIT ( ) SI_UNIT ( $, .RADIAN. ) );
#127 = TOROIDAL_SURFACE ( 'NONE', #144, 56.16499999999999900, 2.665000000000001800 ) ;
#128 = FILL_AREA_STYLE ('',( #47 ) ) ;
#129 = CARTESIAN_POINT ( 'NONE',  ( -53.50000000000000000, 0.0000000000000000000, 3.263683719727700000E-016 ) ) ;
#130 = EDGE_CURVE ( 'NONE', #59, #113, #5, .T. ) ;
#131 = PRODUCT_DEFINITION_FORMATION_WITH_SPECIFIED_SOURCE ( 'ANY', '', #157, .NOT_KNOWN. ) ;
#132 = DIRECTION ( 'NONE',  ( -1.000000000000000000, 0.0000000000000000000, 0.0000000000000000000 ) ) ;
#133 = SURFACE_STYLE_FILL_AREA ( #128 ) ;
#134 = SURFACE_STYLE_USAGE ( .BOTH. , #14 ) ;
#135 = DIRECTION ( 'NONE',  ( 0.0000000000000000000, -1.000000000000000000, 0.0000000000000000000 ) ) ;
#136 = STYLED_ITEM ( 'NONE', ( #40 ), #93 ) ;
#137 = COLOUR_RGB ( '',0.3843137254901960500, 0.3843137254901960500, 0.3843137254901960500 ) ;
#138 = FILL_AREA_STYLE ('',( #46 ) ) ;
#139 = DIRECTION ( 'NONE',  ( -1.000000000000000000, -1.224646799147354400E-016, 0.0000000000000000000 ) ) ;
#140 = PRESENTATION_STYLE_ASSIGNMENT (( #29 ) ) ;
#141 =( NAMED_UNIT ( * ) PLANE_ANGLE_UNIT ( ) SI_UNIT ( $, .RADIAN. ) );
#142 =( NAMED_UNIT ( * ) PLANE_ANGLE_UNIT ( ) SI_UNIT ( $, .RADIAN. ) );
#143 = ORIENTED_EDGE ( 'NONE', *, *, #130, .F. ) ;
#144 = AXIS2_PLACEMENT_3D ( 'NONE', #21, #23, #7 ) ;
#145 = ORIENTED_EDGE ( 'NONE', *, *, #62, .F. ) ;
#146 = CARTESIAN_POINT ( 'NONE',  ( 56.16499999999999900, 6.878228747411109200E-015, 0.0000000000000000000 ) ) ;
#147 = AXIS2_PLACEMENT_3D ( 'NONE', #85, #17, #35 ) ;
#148 = CIRCLE ( 'NONE', #111, 2.665000000000001800 ) ;
#149 = ADVANCED_FACE ( 'NONE', ( #4 ), #2, .T. ) ;
#150 = ADVANCED_FACE ( 'NONE', ( #106 ), #68, .T. ) ;
#151 = SURFACE_SIDE_STYLE ('',( #18 ) ) ;
#152 = ORIENTED_EDGE ( 'NONE', *, *, #94, .T. ) ;
#153 = DIRECTION ( 'NONE',  ( -1.000000000000000000, -1.224646799147354400E-016, 0.0000000000000000000 ) ) ;
#154 = DIRECTION ( 'NONE',  ( -1.224646799147353200E-016, 1.000000000000000000, 0.0000000000000000000 ) ) ;
#155 = CARTESIAN_POINT ( 'NONE',  ( 0.0000000000000000000, 0.0000000000000000000, 3.263683719727698600E-016 ) ) ;
#156 = DIRECTION ( 'NONE',  ( -1.000000000000000000, 0.0000000000000000000, 0.0000000000000000000 ) ) ;
#157 = PRODUCT ( '303DOR100-S1', '303DOR100-S1', '', ( #19 ) ) ;
#158 = CIRCLE ( 'NONE', #87, 2.665000000000000900 ) ;
ENDSEC;
END-ISO-10303-21;
