ISO-10303-21;
/* Copyright TRINOS Vakuum-Systeme GmbH */
HEADER;
FILE_DESCRIPTION (( 'STEP AP214' ),
    '1' );
FILE_NAME ('402 DFL 063-S2.step',
    '2012-06-30T20:05:31',
    ( '' ),
    ( '' ),
    'SwSTEP 2.0',
    'SolidWorks 2010',
    '' );
FILE_SCHEMA (( 'AUTOMOTIVE_DESIGN' ));
ENDSEC;

DATA;
#1 = PRODUCT ( '402 DFL 063-S2', '402 DFL 063-S2', '', ( #158 ) ) ;
#2 = PRODUCT_DEFINITION ( 'UNKNOWN', '', #3, #115 ) ;
#3 = PRODUCT_DEFINITION_FORMATION_WITH_SPECIFIED_SOURCE ( 'ANY', '', #1, .NOT_KNOWN. ) ;
#4 = AXIS2_PLACEMENT_3D ( 'NONE', #152, #143, #141 ) ;
#5 = MECHANICAL_DESIGN_GEOMETRIC_PRESENTATION_REPRESENTATION (  '', ( #95 ), #54 ) ;
#6 = AXIS2_PLACEMENT_3D ( 'NONE', #151, #148, #147 ) ;
#7 = AXIS2_PLACEMENT_3D ( 'NONE', #153, #154, #155 ) ;
#8 = AXIS2_PLACEMENT_3D ( 'NONE', #156, #160, #161 ) ;
#9 = AXIS2_PLACEMENT_3D ( 'NONE', #162, #163, #164 ) ;
#10 = AXIS2_PLACEMENT_3D ( 'NONE', #184, #166, #177 ) ;
#11 = PRODUCT_RELATED_PRODUCT_CATEGORY ( 'part', '', ( #1 ) ) ;
#12 = AXIS2_PLACEMENT_3D ( 'NONE', #118, #117, #159 ) ;
#13 = MECHANICAL_DESIGN_GEOMETRIC_PRESENTATION_REPRESENTATION (  '', ( #94 ), #76 ) ;
#14 = PRESENTATION_LAYER_ASSIGNMENT (  '', '', ( #95 ) ) ;
#15 = AXIS2_PLACEMENT_3D ( 'NONE', #188, #179, #178 ) ;
#16 = AXIS2_PLACEMENT_3D ( 'NONE', #193, #183, #182 ) ;
#17 = PRESENTATION_LAYER_ASSIGNMENT (  '', '', ( #94 ) ) ;
#18 = AXIS2_PLACEMENT_3D ( 'NONE', #131, #192, #190 ) ;
#19 = AXIS2_PLACEMENT_3D ( 'NONE', #189, #187, #185 ) ;
#20 = EDGE_CURVE ( 'NONE', #126, #209, #79, .T. ) ;
#21 = EDGE_CURVE ( 'NONE', #186, #126, #52, .T. ) ;
#22 = EDGE_CURVE ( 'NONE', #194, #208, #92, .T. ) ;
#23 = EDGE_CURVE ( 'NONE', #191, #194, #55, .T. ) ;
#24 = AXIS2_PLACEMENT_3D ( 'NONE', #201, #200, #199 ) ;
#25 = EDGE_CURVE ( 'NONE', #206, #209, #75, .T. ) ;
#26 = EDGE_CURVE ( 'NONE', #207, #191, #103, .T. ) ;
#27 = EDGE_CURVE ( 'NONE', #206, #186, #82, .T. ) ;
#28 = EDGE_CURVE ( 'NONE', #208, #194, #87, .T. ) ;
#29 = EDGE_CURVE ( 'NONE', #209, #126, #96, .T. ) ;
#30 = EDGE_CURVE ( 'NONE', #186, #206, #80, .T. ) ;
#31 = EDGE_CURVE ( 'NONE', #191, #207, #53, .T. ) ;
#32 = EDGE_CURVE ( 'NONE', #207, #208, #81, .T. ) ;
#33 = AXIS2_PLACEMENT_3D ( 'NONE', #198, #196, #195 ) ;
#34 = AXIS2_PLACEMENT_3D ( 'NONE', #197, #180, #157 ) ;
#35 = AXIS2_PLACEMENT_3D ( 'NONE', #142, #137, #132 ) ;
#36 = UNCERTAINTY_MEASURE_WITH_UNIT (LENGTH_MEASURE( 1.000000000000000100E-005 ), #124, 'distance_accuracy_value', 'NONE');
#37 = ADVANCED_BREP_SHAPE_REPRESENTATION ( '402 DFL 063-S2', ( #39, #12 ), #68 ) ;
#38 = UNCERTAINTY_MEASURE_WITH_UNIT (LENGTH_MEASURE( 1.000000000000000100E-005 ), #170, 'distance_accuracy_value', 'NONE');
#39 = MANIFOLD_SOLID_BREP ( 'Linear austragen1', #56 ) ;
#40 = UNCERTAINTY_MEASURE_WITH_UNIT (LENGTH_MEASURE( 1.000000000000000100E-005 ), #140, 'distance_accuracy_value', 'NONE');
#41 = EDGE_LOOP ( 'NONE', ( #86, #43 ) ) ;
#42 = ORIENTED_EDGE ( 'NONE', *, *, #21, .F. ) ;
#43 = ORIENTED_EDGE ( 'NONE', *, *, #31, .T. ) ;
#44 = ORIENTED_EDGE ( 'NONE', *, *, #26, .F. ) ;
#45 = VECTOR ( 'NONE', #146, 1000.000000000000000 ) ;
#46 = FACE_OUTER_BOUND ( 'NONE', #63, .T. ) ;
#47 = EDGE_LOOP ( 'NONE', ( #105, #67, #65, #58 ) ) ;
#48 = CYLINDRICAL_SURFACE ( 'NONE', #8, 41.20000000000001000 ) ;
#49 = COLOUR_RGB ( '',0.3843137254901960500, 0.3843137254901960500, 0.3843137254901960500 ) ;
#50 = FACE_OUTER_BOUND ( 'NONE', #59, .T. ) ;
#51 = CYLINDRICAL_SURFACE ( 'NONE', #7, 31.80000000000000100 ) ;
#52 = LINE ( 'NONE', #204, #45 ) ;
#53 = CIRCLE ( 'NONE', #15, 41.20000000000001000 ) ;
#54 =( GEOMETRIC_REPRESENTATION_CONTEXT ( 3 ) GLOBAL_UNCERTAINTY_ASSIGNED_CONTEXT ( ( #36 ) ) GLOBAL_UNIT_ASSIGNED_CONTEXT ( ( #124, #123, #119 ) ) REPRESENTATION_CONTEXT ( 'NONE', 'WORKASPACE' ) );
#55 = LINE ( 'NONE', #150, #93 ) ;
#56 = CLOSED_SHELL ( 'NONE', ( #112, #111, #113, #114, #109, #110 ) ) ;
#57 = FACE_OUTER_BOUND ( 'NONE', #47, .T. ) ;
#58 = ORIENTED_EDGE ( 'NONE', *, *, #32, .F. ) ;
#59 = EDGE_LOOP ( 'NONE', ( #90, #85, #100, #42 ) ) ;
#60 = SURFACE_STYLE_FILL_AREA ( #174 ) ;
#61 = FACE_OUTER_BOUND ( 'NONE', #77, .T. ) ;
#62 = PRESENTATION_STYLE_ASSIGNMENT (( #171 ) ) ;
#63 = EDGE_LOOP ( 'NONE', ( #69, #66 ) ) ;
#64 = FACE_OUTER_BOUND ( 'NONE', #41, .T. ) ;
#65 = ORIENTED_EDGE ( 'NONE', *, *, #22, .T. ) ;
#66 = ORIENTED_EDGE ( 'NONE', *, *, #22, .F. ) ;
#67 = ORIENTED_EDGE ( 'NONE', *, *, #23, .T. ) ;
#68 =( GEOMETRIC_REPRESENTATION_CONTEXT ( 3 ) GLOBAL_UNCERTAINTY_ASSIGNED_CONTEXT ( ( #40 ) ) GLOBAL_UNIT_ASSIGNED_CONTEXT ( ( #140, #130, #129 ) ) REPRESENTATION_CONTEXT ( 'NONE', 'WORKASPACE' ) );
#69 = ORIENTED_EDGE ( 'NONE', *, *, #28, .F. ) ;
#70 = EDGE_LOOP ( 'NONE', ( #107, #89 ) ) ;
#71 = ORIENTED_EDGE ( 'NONE', *, *, #23, .F. ) ;
#72 = COLOUR_RGB ( '',0.2509803921568627400, 0.2509803921568627400, 0.2509803921568627400 ) ;
#73 = EDGE_LOOP ( 'NONE', ( #71, #44, #88, #213 ) ) ;
#74 = PRESENTATION_STYLE_ASSIGNMENT (( #125 ) ) ;
#75 = LINE ( 'NONE', #203, #84 ) ;
#76 =( GEOMETRIC_REPRESENTATION_CONTEXT ( 3 ) GLOBAL_UNCERTAINTY_ASSIGNED_CONTEXT ( ( #38 ) ) GLOBAL_UNIT_ASSIGNED_CONTEXT ( ( #170, #169, #168 ) ) REPRESENTATION_CONTEXT ( 'NONE', 'WORKASPACE' ) );
#77 = EDGE_LOOP ( 'NONE', ( #211, #214, #212, #210 ) ) ;
#78 = SHAPE_DEFINITION_REPRESENTATION ( #116, #37 ) ;
#79 = CIRCLE ( 'NONE', #34, 31.80000000000000100 ) ;
#80 = CIRCLE ( 'NONE', #16, 31.80000000000000100 ) ;
#81 = LINE ( 'NONE', #176, #108 ) ;
#82 = CIRCLE ( 'NONE', #33, 31.80000000000000100 ) ;
#83 = EDGE_LOOP ( 'NONE', ( #99, #91 ) ) ;
#84 = VECTOR ( 'NONE', #202, 1000.000000000000000 ) ;
#85 = ORIENTED_EDGE ( 'NONE', *, *, #25, .T. ) ;
#86 = ORIENTED_EDGE ( 'NONE', *, *, #26, .T. ) ;
#87 = CIRCLE ( 'NONE', #18, 41.20000000000001000 ) ;
#88 = ORIENTED_EDGE ( 'NONE', *, *, #32, .T. ) ;
#89 = ORIENTED_EDGE ( 'NONE', *, *, #29, .T. ) ;
#90 = ORIENTED_EDGE ( 'NONE', *, *, #30, .T. ) ;
#91 = ORIENTED_EDGE ( 'NONE', *, *, #27, .F. ) ;
#92 = CIRCLE ( 'NONE', #35, 41.20000000000001000 ) ;
#93 = VECTOR ( 'NONE', #205, 1000.000000000000000 ) ;
#94 = STYLED_ITEM ( 'NONE', ( #62 ), #39 ) ;
#95 = STYLED_ITEM ( 'NONE', ( #74 ), #37 ) ;
#96 = CIRCLE ( 'NONE', #19, 31.80000000000000100 ) ;
#97 = FACE_BOUND ( 'NONE', #83, .T. ) ;
#98 = FACE_OUTER_BOUND ( 'NONE', #73, .T. ) ;
#99 = ORIENTED_EDGE ( 'NONE', *, *, #30, .F. ) ;
#100 = ORIENTED_EDGE ( 'NONE', *, *, #20, .F. ) ;
#101 = CYLINDRICAL_SURFACE ( 'NONE', #10, 41.20000000000001000 ) ;
#102 = SURFACE_STYLE_FILL_AREA ( #133 ) ;
#103 = CIRCLE ( 'NONE', #24, 41.20000000000001000 ) ;
#104 = CYLINDRICAL_SURFACE ( 'NONE', #9, 31.80000000000000100 ) ;
#105 = ORIENTED_EDGE ( 'NONE', *, *, #31, .F. ) ;
#106 = FACE_BOUND ( 'NONE', #70, .T. ) ;
#107 = ORIENTED_EDGE ( 'NONE', *, *, #20, .T. ) ;
#108 = VECTOR ( 'NONE', #175, 1000.000000000000000 ) ;
#109 = ADVANCED_FACE ( 'NONE', ( #98 ), #101, .T. ) ;
#110 = ADVANCED_FACE ( 'NONE', ( #61 ), #104, .F. ) ;
#111 = ADVANCED_FACE ( 'NONE', ( #57 ), #48, .T. ) ;
#112 = ADVANCED_FACE ( 'NONE', ( #50 ), #51, .F. ) ;
#113 = ADVANCED_FACE ( 'NONE', ( #64, #97 ), #149, .T. ) ;
#114 = ADVANCED_FACE ( 'NONE', ( #46, #106 ), #144, .F. ) ;
#115 = PRODUCT_DEFINITION_CONTEXT ( 'detailed design', #173, 'design' ) ;
#116 = PRODUCT_DEFINITION_SHAPE ( 'NONE', 'NONE',  #2 ) ;
#117 = DIRECTION ( 'NONE',  ( 0.0000000000000000000, 0.0000000000000000000, 1.000000000000000000 ) ) ;
#118 = CARTESIAN_POINT ( 'NONE',  ( 0.0000000000000000000, 0.0000000000000000000, 0.0000000000000000000 ) ) ;
#119 =( NAMED_UNIT ( * ) SI_UNIT ( $, .STERADIAN. ) SOLID_ANGLE_UNIT ( ) );
#120 = APPLICATION_PROTOCOL_DEFINITION ( 'draft international standard', 'automotive_design', 1998, #173 ) ;
#121 = APPLICATION_CONTEXT ( 'automotive_design' ) ;
#122 = APPLICATION_PROTOCOL_DEFINITION ( 'draft international standard', 'automotive_design', 1998, #121 ) ;
#123 =( NAMED_UNIT ( * ) PLANE_ANGLE_UNIT ( ) SI_UNIT ( $, .RADIAN. ) );
#124 =( LENGTH_UNIT ( ) NAMED_UNIT ( * ) SI_UNIT ( .MILLI., .METRE. ) );
#125 = SURFACE_STYLE_USAGE ( .BOTH. , #127 ) ;
#126 = VERTEX_POINT ( 'NONE', #145 ) ;
#127 = SURFACE_SIDE_STYLE ('',( #102 ) ) ;
#128 = FILL_AREA_STYLE_COLOUR ( '', #49 ) ;
#129 =( NAMED_UNIT ( * ) SI_UNIT ( $, .STERADIAN. ) SOLID_ANGLE_UNIT ( ) );
#130 =( NAMED_UNIT ( * ) PLANE_ANGLE_UNIT ( ) SI_UNIT ( $, .RADIAN. ) );
#131 = CARTESIAN_POINT ( 'NONE',  ( 0.0000000000000000000, 0.0000000000000000000, 0.0000000000000000000 ) ) ;
#132 = DIRECTION ( 'NONE',  ( 1.000000000000000000, 0.0000000000000000000, 0.0000000000000000000 ) ) ;
#133 = FILL_AREA_STYLE ('',( #128 ) ) ;
#134 = CARTESIAN_POINT ( 'NONE',  ( 31.80000000000000100, 3.894376821288583500E-015, 0.0000000000000000000 ) ) ;
#135 = CARTESIAN_POINT ( 'NONE',  ( -41.20000000000001000, 0.0000000000000000000, 0.0000000000000000000 ) ) ;
#136 = CARTESIAN_POINT ( 'NONE',  ( -41.20000000000001000, 0.0000000000000000000, 3.000000000000000000 ) ) ;
#137 = DIRECTION ( 'NONE',  ( 0.0000000000000000000, 0.0000000000000000000, 1.000000000000000000 ) ) ;
#138 = CARTESIAN_POINT ( 'NONE',  ( 31.80000000000000100, 3.894376821288583500E-015, 3.000000000000000000 ) ) ;
#139 = CARTESIAN_POINT ( 'NONE',  ( 41.20000000000001000, 5.045544812487095700E-015, 3.000000000000000000 ) ) ;
#140 =( LENGTH_UNIT ( ) NAMED_UNIT ( * ) SI_UNIT ( .MILLI., .METRE. ) );
#141 = DIRECTION ( 'NONE',  ( 1.000000000000000000, 0.0000000000000000000, -0.0000000000000000000 ) ) ;
#142 = CARTESIAN_POINT ( 'NONE',  ( 0.0000000000000000000, 0.0000000000000000000, 0.0000000000000000000 ) ) ;
#143 = DIRECTION ( 'NONE',  ( 0.0000000000000000000, 0.0000000000000000000, 1.000000000000000000 ) ) ;
#144 = PLANE ( 'NONE',  #4 ) ;
#145 = CARTESIAN_POINT ( 'NONE',  ( -31.80000000000000100, 0.0000000000000000000, 0.0000000000000000000 ) ) ;
#146 = DIRECTION ( 'NONE',  ( -0.0000000000000000000, -0.0000000000000000000, -1.000000000000000000 ) ) ;
#147 = DIRECTION ( 'NONE',  ( 1.000000000000000000, 0.0000000000000000000, -0.0000000000000000000 ) ) ;
#148 = DIRECTION ( 'NONE',  ( 0.0000000000000000000, 0.0000000000000000000, 1.000000000000000000 ) ) ;
#149 = PLANE ( 'NONE',  #6 ) ;
#150 = CARTESIAN_POINT ( 'NONE',  ( 41.20000000000001000, 5.045544812487095700E-015, 3.000000000000000000 ) ) ;
#151 = CARTESIAN_POINT ( 'NONE',  ( 0.0000000000000000000, 0.0000000000000000000, 3.000000000000000000 ) ) ;
#152 = CARTESIAN_POINT ( 'NONE',  ( 0.0000000000000000000, 0.0000000000000000000, 0.0000000000000000000 ) ) ;
#153 = CARTESIAN_POINT ( 'NONE',  ( 0.0000000000000000000, 0.0000000000000000000, 3.000000000000000000 ) ) ;
#154 = DIRECTION ( 'NONE',  ( -0.0000000000000000000, -0.0000000000000000000, -1.000000000000000000 ) ) ;
#155 = DIRECTION ( 'NONE',  ( -1.000000000000000000, 0.0000000000000000000, 0.0000000000000000000 ) ) ;
#156 = CARTESIAN_POINT ( 'NONE',  ( 0.0000000000000000000, 0.0000000000000000000, 3.000000000000000000 ) ) ;
#157 = DIRECTION ( 'NONE',  ( 1.000000000000000000, 0.0000000000000000000, 0.0000000000000000000 ) ) ;
#158 = PRODUCT_CONTEXT ( 'NONE', #121, 'mechanical' ) ;
#159 = DIRECTION ( 'NONE',  ( 1.000000000000000000, 0.0000000000000000000, 0.0000000000000000000 ) ) ;
#160 = DIRECTION ( 'NONE',  ( -0.0000000000000000000, -0.0000000000000000000, -1.000000000000000000 ) ) ;
#161 = DIRECTION ( 'NONE',  ( -1.000000000000000000, 0.0000000000000000000, 0.0000000000000000000 ) ) ;
#162 = CARTESIAN_POINT ( 'NONE',  ( 0.0000000000000000000, 0.0000000000000000000, 3.000000000000000000 ) ) ;
#163 = DIRECTION ( 'NONE',  ( -0.0000000000000000000, -0.0000000000000000000, -1.000000000000000000 ) ) ;
#164 = DIRECTION ( 'NONE',  ( -1.000000000000000000, 0.0000000000000000000, 0.0000000000000000000 ) ) ;
#165 = CARTESIAN_POINT ( 'NONE',  ( -31.80000000000000100, 0.0000000000000000000, 3.000000000000000000 ) ) ;
#166 = DIRECTION ( 'NONE',  ( -0.0000000000000000000, -0.0000000000000000000, -1.000000000000000000 ) ) ;
#167 = CARTESIAN_POINT ( 'NONE',  ( 41.20000000000001000, 5.045544812487095700E-015, 0.0000000000000000000 ) ) ;
#168 =( NAMED_UNIT ( * ) SI_UNIT ( $, .STERADIAN. ) SOLID_ANGLE_UNIT ( ) );
#169 =( NAMED_UNIT ( * ) PLANE_ANGLE_UNIT ( ) SI_UNIT ( $, .RADIAN. ) );
#170 =( LENGTH_UNIT ( ) NAMED_UNIT ( * ) SI_UNIT ( .MILLI., .METRE. ) );
#171 = SURFACE_STYLE_USAGE ( .BOTH. , #172 ) ;
#172 = SURFACE_SIDE_STYLE ('',( #60 ) ) ;
#173 = APPLICATION_CONTEXT ( 'automotive_design' ) ;
#174 = FILL_AREA_STYLE ('',( #181 ) ) ;
#175 = DIRECTION ( 'NONE',  ( -0.0000000000000000000, -0.0000000000000000000, -1.000000000000000000 ) ) ;
#176 = CARTESIAN_POINT ( 'NONE',  ( -41.20000000000001000, 0.0000000000000000000, 3.000000000000000000 ) ) ;
#177 = DIRECTION ( 'NONE',  ( -1.000000000000000000, 0.0000000000000000000, 0.0000000000000000000 ) ) ;
#178 = DIRECTION ( 'NONE',  ( 1.000000000000000000, 0.0000000000000000000, 0.0000000000000000000 ) ) ;
#179 = DIRECTION ( 'NONE',  ( 0.0000000000000000000, 0.0000000000000000000, 1.000000000000000000 ) ) ;
#180 = DIRECTION ( 'NONE',  ( 0.0000000000000000000, 0.0000000000000000000, 1.000000000000000000 ) ) ;
#181 = FILL_AREA_STYLE_COLOUR ( '', #72 ) ;
#182 = DIRECTION ( 'NONE',  ( 1.000000000000000000, 0.0000000000000000000, 0.0000000000000000000 ) ) ;
#183 = DIRECTION ( 'NONE',  ( 0.0000000000000000000, 0.0000000000000000000, 1.000000000000000000 ) ) ;
#184 = CARTESIAN_POINT ( 'NONE',  ( 0.0000000000000000000, 0.0000000000000000000, 3.000000000000000000 ) ) ;
#185 = DIRECTION ( 'NONE',  ( 1.000000000000000000, 0.0000000000000000000, 0.0000000000000000000 ) ) ;
#186 = VERTEX_POINT ( 'NONE', #165 ) ;
#187 = DIRECTION ( 'NONE',  ( 0.0000000000000000000, 0.0000000000000000000, 1.000000000000000000 ) ) ;
#188 = CARTESIAN_POINT ( 'NONE',  ( 0.0000000000000000000, 0.0000000000000000000, 3.000000000000000000 ) ) ;
#189 = CARTESIAN_POINT ( 'NONE',  ( 0.0000000000000000000, 0.0000000000000000000, 0.0000000000000000000 ) ) ;
#190 = DIRECTION ( 'NONE',  ( 1.000000000000000000, 0.0000000000000000000, 0.0000000000000000000 ) ) ;
#191 = VERTEX_POINT ( 'NONE', #139 ) ;
#192 = DIRECTION ( 'NONE',  ( 0.0000000000000000000, 0.0000000000000000000, 1.000000000000000000 ) ) ;
#193 = CARTESIAN_POINT ( 'NONE',  ( 0.0000000000000000000, 0.0000000000000000000, 3.000000000000000000 ) ) ;
#194 = VERTEX_POINT ( 'NONE', #167 ) ;
#195 = DIRECTION ( 'NONE',  ( 1.000000000000000000, 0.0000000000000000000, 0.0000000000000000000 ) ) ;
#196 = DIRECTION ( 'NONE',  ( 0.0000000000000000000, 0.0000000000000000000, 1.000000000000000000 ) ) ;
#197 = CARTESIAN_POINT ( 'NONE',  ( 0.0000000000000000000, 0.0000000000000000000, 0.0000000000000000000 ) ) ;
#198 = CARTESIAN_POINT ( 'NONE',  ( 0.0000000000000000000, 0.0000000000000000000, 3.000000000000000000 ) ) ;
#199 = DIRECTION ( 'NONE',  ( 1.000000000000000000, 0.0000000000000000000, 0.0000000000000000000 ) ) ;
#200 = DIRECTION ( 'NONE',  ( 0.0000000000000000000, 0.0000000000000000000, 1.000000000000000000 ) ) ;
#201 = CARTESIAN_POINT ( 'NONE',  ( 0.0000000000000000000, 0.0000000000000000000, 3.000000000000000000 ) ) ;
#202 = DIRECTION ( 'NONE',  ( -0.0000000000000000000, -0.0000000000000000000, -1.000000000000000000 ) ) ;
#203 = CARTESIAN_POINT ( 'NONE',  ( 31.80000000000000100, 3.894376821288583500E-015, 3.000000000000000000 ) ) ;
#204 = CARTESIAN_POINT ( 'NONE',  ( -31.80000000000000100, 0.0000000000000000000, 3.000000000000000000 ) ) ;
#205 = DIRECTION ( 'NONE',  ( -0.0000000000000000000, -0.0000000000000000000, -1.000000000000000000 ) ) ;
#206 = VERTEX_POINT ( 'NONE', #138 ) ;
#207 = VERTEX_POINT ( 'NONE', #136 ) ;
#208 = VERTEX_POINT ( 'NONE', #135 ) ;
#209 = VERTEX_POINT ( 'NONE', #134 ) ;
#210 = ORIENTED_EDGE ( 'NONE', *, *, #29, .F. ) ;
#211 = ORIENTED_EDGE ( 'NONE', *, *, #25, .F. ) ;
#212 = ORIENTED_EDGE ( 'NONE', *, *, #21, .T. ) ;
#213 = ORIENTED_EDGE ( 'NONE', *, *, #28, .T. ) ;
#214 = ORIENTED_EDGE ( 'NONE', *, *, #27, .T. ) ;
ENDSEC;
END-ISO-10303-21;
