ISO-10303-21;
HEADER;
FILE_DESCRIPTION (( 'STEP AP214' ),
    '1' );
FILE_NAME ('490DFL100-S-S5.stp',
    '2017-10-11T10:23:27',
    ( '' ),
    ( '' ),
    'SwSTEP 2.0',
    'SolidWorks 2015',
    '' );
FILE_SCHEMA (( 'AUTOMOTIVE_DESIGN' ));
ENDSEC;

DATA;
#1 = DIRECTION ( 'NONE',  ( 0.0000000000000000000, 0.0000000000000000000, 1.000000000000000000 ) ) ;
#2 = AXIS2_PLACEMENT_3D ( 'NONE', #109, #43, #137 ) ;
#3 = DIRECTION ( 'NONE',  ( 1.000000000000000000, 0.0000000000000000000, 0.0000000000000000000 ) ) ;
#4 = VECTOR ( 'NONE', #97, 1000.000000000000000 ) ;
#5 = VECTOR ( 'NONE', #125, 1000.000000000000000 ) ;
#6 = MECHANICAL_DESIGN_GEOMETRIC_PRESENTATION_REPRESENTATION (  '', ( #176 ), #72 ) ;
#7 = CARTESIAN_POINT ( 'NONE',  ( -50.79999999999999700, 6.221205739668553700E-015, 0.0000000000000000000 ) ) ;
#8 = AXIS2_PLACEMENT_3D ( 'NONE', #94, #201, #202 ) ;
#9 = VERTEX_POINT ( 'NONE', #47 ) ;
#10 = CIRCLE ( 'NONE', #2, 60.25000000000000000 ) ;
#11 = UNCERTAINTY_MEASURE_WITH_UNIT (LENGTH_MEASURE( 1.000000000000000100E-005 ), #155, 'distance_accuracy_value', 'NONE');
#12 = ORIENTED_EDGE ( 'NONE', *, *, #87, .T. ) ;
#13 = AXIS2_PLACEMENT_3D ( 'NONE', #19, #32, #52 ) ;
#14 = EDGE_CURVE ( 'NONE', #26, #191, #44, .T. ) ;
#15 = PRODUCT_DEFINITION_SHAPE ( 'NONE', 'NONE',  #145 ) ;
#16 = LINE ( 'NONE', #128, #5 ) ;
#17 = DIRECTION ( 'NONE',  ( 0.0000000000000000000, 0.0000000000000000000, 1.000000000000000000 ) ) ;
#18 = ORIENTED_EDGE ( 'NONE', *, *, #39, .T. ) ;
#19 = CARTESIAN_POINT ( 'NONE',  ( 0.0000000000000000000, 0.0000000000000000000, -2.000000000000000000 ) ) ;
#20 = DIRECTION ( 'NONE',  ( 0.0000000000000000000, 0.0000000000000000000, 1.000000000000000000 ) ) ;
#21 = MECHANICAL_DESIGN_GEOMETRIC_PRESENTATION_REPRESENTATION (  '', ( #89 ), #99 ) ;
#22 = UNCERTAINTY_MEASURE_WITH_UNIT (LENGTH_MEASURE( 1.000000000000000100E-005 ), #152, 'distance_accuracy_value', 'NONE');
#23 = LINE ( 'NONE', #144, #90 ) ;
#24 = AXIS2_PLACEMENT_3D ( 'NONE', #124, #71, #93 ) ;
#25 = EDGE_CURVE ( 'NONE', #177, #56, #23, .T. ) ;
#26 = VERTEX_POINT ( 'NONE', #86 ) ;
#27 = PRESENTATION_LAYER_ASSIGNMENT (  '', '', ( #89 ) ) ;
#28 = VERTEX_POINT ( 'NONE', #112 ) ;
#29 = SURFACE_STYLE_USAGE ( .BOTH. , #57 ) ;
#30 = DIRECTION ( 'NONE',  ( 0.0000000000000000000, 0.0000000000000000000, 1.000000000000000000 ) ) ;
#31 = EDGE_CURVE ( 'NONE', #56, #9, #104, .T. ) ;
#32 = DIRECTION ( 'NONE',  ( 0.0000000000000000000, 0.0000000000000000000, 1.000000000000000000 ) ) ;
#33 = DIRECTION ( 'NONE',  ( 0.0000000000000000000, 0.0000000000000000000, 1.000000000000000000 ) ) ;
#34 = EDGE_CURVE ( 'NONE', #64, #177, #161, .T. ) ;
#35 = PLANE ( 'NONE',  #203 ) ;
#36 = FACE_OUTER_BOUND ( 'NONE', #80, .T. ) ;
#37 = DIRECTION ( 'NONE',  ( 1.000000000000000000, 0.0000000000000000000, 0.0000000000000000000 ) ) ;
#38 = FILL_AREA_STYLE_COLOUR ( '', #197 ) ;
#39 = EDGE_CURVE ( 'NONE', #28, #26, #16, .T. ) ;
#40 = FACE_BOUND ( 'NONE', #142, .T. ) ;
#41 = EDGE_LOOP ( 'NONE', ( #61, #77, #182, #118 ) ) ;
#42 = ADVANCED_FACE ( 'NONE', ( #131, #36 ), #35, .T. ) ;
#43 = DIRECTION ( 'NONE',  ( 0.0000000000000000000, 0.0000000000000000000, 1.000000000000000000 ) ) ;
#44 = CIRCLE ( 'NONE', #24, 50.79999999999999700 ) ;
#45 = DIRECTION ( 'NONE',  ( 1.000000000000000000, 0.0000000000000000000, 0.0000000000000000000 ) ) ;
#46 = DIRECTION ( 'NONE',  ( 1.000000000000000000, 0.0000000000000000000, 0.0000000000000000000 ) ) ;
#47 = CARTESIAN_POINT ( 'NONE',  ( -60.25000000000000000, 7.378496964862802100E-015, 0.0000000000000000000 ) ) ;
#48 = DIRECTION ( 'NONE',  ( 1.000000000000000000, 0.0000000000000000000, 0.0000000000000000000 ) ) ;
#49 = ORIENTED_EDGE ( 'NONE', *, *, #31, .F. ) ;
#50 = DIRECTION ( 'NONE',  ( 1.000000000000000000, 0.0000000000000000000, 0.0000000000000000000 ) ) ;
#51 = AXIS2_PLACEMENT_3D ( 'NONE', #150, #110, #58 ) ;
#52 = DIRECTION ( 'NONE',  ( 1.000000000000000000, 0.0000000000000000000, 0.0000000000000000000 ) ) ;
#53 = CARTESIAN_POINT ( 'NONE',  ( 0.0000000000000000000, 0.0000000000000000000, -2.000000000000000000 ) ) ;
#54 = ORIENTED_EDGE ( 'NONE', *, *, #65, .T. ) ;
#55 = DIRECTION ( 'NONE',  ( 1.000000000000000000, 0.0000000000000000000, -0.0000000000000000000 ) ) ;
#56 = VERTEX_POINT ( 'NONE', #66 ) ;
#57 = SURFACE_SIDE_STYLE ('',( #175 ) ) ;
#58 = DIRECTION ( 'NONE',  ( 1.000000000000000000, 0.0000000000000000000, 0.0000000000000000000 ) ) ;
#59 = EDGE_CURVE ( 'NONE', #177, #64, #180, .T. ) ;
#60 = PRODUCT ( '490DFL100-S-S5', '490DFL100-S-S5', '', ( #194 ) ) ;
#61 = ORIENTED_EDGE ( 'NONE', *, *, #65, .F. ) ;
#62 = ADVANCED_FACE ( 'NONE', ( #169 ), #75, .F. ) ;
#63 = APPLICATION_PROTOCOL_DEFINITION ( 'draft international standard', 'automotive_design', 1998, #172 ) ;
#64 = VERTEX_POINT ( 'NONE', #199 ) ;
#65 = EDGE_CURVE ( 'NONE', #64, #9, #136, .T. ) ;
#66 = CARTESIAN_POINT ( 'NONE',  ( 60.25000000000000000, 0.0000000000000000000, 0.0000000000000000000 ) ) ;
#67 = ADVANCED_BREP_SHAPE_REPRESENTATION ( '490DFL100-S-S5', ( #98, #132 ), #100 ) ;
#68 = DIRECTION ( 'NONE',  ( 0.0000000000000000000, 0.0000000000000000000, 1.000000000000000000 ) ) ;
#69 = LINE ( 'NONE', #108, #4 ) ;
#70 = PRODUCT_DEFINITION_CONTEXT ( 'detailed design', #120, 'design' ) ;
#71 = DIRECTION ( 'NONE',  ( 0.0000000000000000000, 0.0000000000000000000, 1.000000000000000000 ) ) ;
#72 =( GEOMETRIC_REPRESENTATION_CONTEXT ( 3 ) GLOBAL_UNCERTAINTY_ASSIGNED_CONTEXT ( ( #11 ) ) GLOBAL_UNIT_ASSIGNED_CONTEXT ( ( #155, #190, #192 ) ) REPRESENTATION_CONTEXT ( 'NONE', 'WORKASPACE' ) );
#73 = EDGE_CURVE ( 'NONE', #191, #26, #111, .T. ) ;
#74 = ORIENTED_EDGE ( 'NONE', *, *, #14, .F. ) ;
#75 = CYLINDRICAL_SURFACE ( 'NONE', #198, 50.79999999999999700 ) ;
#76 = CARTESIAN_POINT ( 'NONE',  ( 0.0000000000000000000, 0.0000000000000000000, 0.0000000000000000000 ) ) ;
#77 = ORIENTED_EDGE ( 'NONE', *, *, #34, .T. ) ;
#78 = CYLINDRICAL_SURFACE ( 'NONE', #107, 50.79999999999999700 ) ;
#79 = FILL_AREA_STYLE ('',( #123 ) ) ;
#80 = EDGE_LOOP ( 'NONE', ( #126, #174 ) ) ;
#81 = PRODUCT_RELATED_PRODUCT_CATEGORY ( 'part', '', ( #60 ) ) ;
#82 = AXIS2_PLACEMENT_3D ( 'NONE', #76, #154, #46 ) ;
#83 = ORIENTED_EDGE ( 'NONE', *, *, #25, .F. ) ;
#84 = CARTESIAN_POINT ( 'NONE',  ( 0.0000000000000000000, 0.0000000000000000000, 0.0000000000000000000 ) ) ;
#85 = ORIENTED_EDGE ( 'NONE', *, *, #73, .T. ) ;
#86 = CARTESIAN_POINT ( 'NONE',  ( 50.79999999999999700, 0.0000000000000000000, 0.0000000000000000000 ) ) ;
#87 = EDGE_CURVE ( 'NONE', #115, #28, #187, .T. ) ;
#88 = SURFACE_STYLE_FILL_AREA ( #134 ) ;
#89 = STYLED_ITEM ( 'NONE', ( #167 ), #98 ) ;
#90 = VECTOR ( 'NONE', #168, 1000.000000000000000 ) ;
#91 = CYLINDRICAL_SURFACE ( 'NONE', #13, 60.25000000000000000 ) ;
#92 = ORIENTED_EDGE ( 'NONE', *, *, #39, .F. ) ;
#93 = DIRECTION ( 'NONE',  ( 1.000000000000000000, 0.0000000000000000000, 0.0000000000000000000 ) ) ;
#94 = CARTESIAN_POINT ( 'NONE',  ( 0.0000000000000000000, 0.0000000000000000000, 0.0000000000000000000 ) ) ;
#95 = EDGE_LOOP ( 'NONE', ( #74, #164 ) ) ;
#96 = EDGE_CURVE ( 'NONE', #115, #191, #69, .T. ) ;
#97 = DIRECTION ( 'NONE',  ( 0.0000000000000000000, 0.0000000000000000000, 1.000000000000000000 ) ) ;
#98 = MANIFOLD_SOLID_BREP ( 'Aufsatz-Linear austragen1', #138 ) ;
#99 =( GEOMETRIC_REPRESENTATION_CONTEXT ( 3 ) GLOBAL_UNCERTAINTY_ASSIGNED_CONTEXT ( ( #162 ) ) GLOBAL_UNIT_ASSIGNED_CONTEXT ( ( #165, #166, #204 ) ) REPRESENTATION_CONTEXT ( 'NONE', 'WORKASPACE' ) );
#100 =( GEOMETRIC_REPRESENTATION_CONTEXT ( 3 ) GLOBAL_UNCERTAINTY_ASSIGNED_CONTEXT ( ( #22 ) ) GLOBAL_UNIT_ASSIGNED_CONTEXT ( ( #152, #153, #156 ) ) REPRESENTATION_CONTEXT ( 'NONE', 'WORKASPACE' ) );
#101 = ORIENTED_EDGE ( 'NONE', *, *, #179, .T. ) ;
#102 = SURFACE_STYLE_USAGE ( .BOTH. , #117 ) ;
#103 = COLOUR_RGB ( '',0.7529411764705882200, 0.7529411764705882200, 0.7529411764705882200 ) ;
#104 = CIRCLE ( 'NONE', #8, 60.25000000000000000 ) ;
#105 = CYLINDRICAL_SURFACE ( 'NONE', #51, 60.25000000000000000 ) ;
#106 = EDGE_LOOP ( 'NONE', ( #113, #146, #85, #92 ) ) ;
#107 = AXIS2_PLACEMENT_3D ( 'NONE', #141, #148, #50 ) ;
#108 = CARTESIAN_POINT ( 'NONE',  ( -50.79999999999999700, 6.221205739668553700E-015, -2.000000000000000000 ) ) ;
#109 = CARTESIAN_POINT ( 'NONE',  ( 0.0000000000000000000, 0.0000000000000000000, 0.0000000000000000000 ) ) ;
#110 = DIRECTION ( 'NONE',  ( 0.0000000000000000000, 0.0000000000000000000, 1.000000000000000000 ) ) ;
#111 = CIRCLE ( 'NONE', #82, 50.79999999999999700 ) ;
#112 = CARTESIAN_POINT ( 'NONE',  ( 50.79999999999999700, 0.0000000000000000000, -2.000000000000000000 ) ) ;
#113 = ORIENTED_EDGE ( 'NONE', *, *, #87, .F. ) ;
#114 = ADVANCED_FACE ( 'NONE', ( #205 ), #105, .T. ) ;
#115 = VERTEX_POINT ( 'NONE', #183 ) ;
#116 = ADVANCED_FACE ( 'NONE', ( #40, #149 ), #181, .F. ) ;
#117 = SURFACE_SIDE_STYLE ('',( #88 ) ) ;
#118 = ORIENTED_EDGE ( 'NONE', *, *, #209, .F. ) ;
#119 = FACE_OUTER_BOUND ( 'NONE', #41, .T. ) ;
#120 = APPLICATION_CONTEXT ( 'automotive_design' ) ;
#121 = EDGE_LOOP ( 'NONE', ( #184, #54, #49, #83 ) ) ;
#122 = DIRECTION ( 'NONE',  ( 0.0000000000000000000, 0.0000000000000000000, 1.000000000000000000 ) ) ;
#123 = FILL_AREA_STYLE_COLOUR ( '', #103 ) ;
#124 = CARTESIAN_POINT ( 'NONE',  ( 0.0000000000000000000, 0.0000000000000000000, 0.0000000000000000000 ) ) ;
#125 = DIRECTION ( 'NONE',  ( 0.0000000000000000000, 0.0000000000000000000, 1.000000000000000000 ) ) ;
#126 = ORIENTED_EDGE ( 'NONE', *, *, #31, .T. ) ;
#127 = DIRECTION ( 'NONE',  ( 0.0000000000000000000, 0.0000000000000000000, 1.000000000000000000 ) ) ;
#128 = CARTESIAN_POINT ( 'NONE',  ( 50.79999999999999700, 0.0000000000000000000, -2.000000000000000000 ) ) ;
#129 = CARTESIAN_POINT ( 'NONE',  ( 0.0000000000000000000, 0.0000000000000000000, -2.000000000000000000 ) ) ;
#130 = CARTESIAN_POINT ( 'NONE',  ( 0.0000000000000000000, 0.0000000000000000000, -2.000000000000000000 ) ) ;
#131 = FACE_BOUND ( 'NONE', #95, .T. ) ;
#132 = AXIS2_PLACEMENT_3D ( 'NONE', #147, #20, #45 ) ;
#133 = ORIENTED_EDGE ( 'NONE', *, *, #59, .F. ) ;
#134 = FILL_AREA_STYLE ('',( #38 ) ) ;
#135 = ADVANCED_FACE ( 'NONE', ( #196 ), #78, .F. ) ;
#136 = LINE ( 'NONE', #212, #207 ) ;
#137 = DIRECTION ( 'NONE',  ( 1.000000000000000000, 0.0000000000000000000, 0.0000000000000000000 ) ) ;
#138 = CLOSED_SHELL ( 'NONE', ( #62, #114, #178, #116, #42, #135 ) ) ;
#139 = CARTESIAN_POINT ( 'NONE',  ( 0.0000000000000000000, 0.0000000000000000000, -2.000000000000000000 ) ) ;
#140 = DIRECTION ( 'NONE',  ( 1.000000000000000000, 0.0000000000000000000, 0.0000000000000000000 ) ) ;
#141 = CARTESIAN_POINT ( 'NONE',  ( 0.0000000000000000000, 0.0000000000000000000, -2.000000000000000000 ) ) ;
#142 = EDGE_LOOP ( 'NONE', ( #101, #12 ) ) ;
#143 = DIRECTION ( 'NONE',  ( 1.000000000000000000, 0.0000000000000000000, 0.0000000000000000000 ) ) ;
#144 = CARTESIAN_POINT ( 'NONE',  ( 60.25000000000000000, 0.0000000000000000000, -2.000000000000000000 ) ) ;
#145 = PRODUCT_DEFINITION ( 'UNKNOWN', '', #173, #70 ) ;
#146 = ORIENTED_EDGE ( 'NONE', *, *, #96, .T. ) ;
#147 = CARTESIAN_POINT ( 'NONE',  ( 0.0000000000000000000, 0.0000000000000000000, 0.0000000000000000000 ) ) ;
#148 = DIRECTION ( 'NONE',  ( 0.0000000000000000000, 0.0000000000000000000, 1.000000000000000000 ) ) ;
#149 = FACE_OUTER_BOUND ( 'NONE', #214, .T. ) ;
#150 = CARTESIAN_POINT ( 'NONE',  ( 0.0000000000000000000, 0.0000000000000000000, -2.000000000000000000 ) ) ;
#151 = ORIENTED_EDGE ( 'NONE', *, *, #179, .F. ) ;
#152 =( LENGTH_UNIT ( ) NAMED_UNIT ( * ) SI_UNIT ( .MILLI., .METRE. ) );
#153 =( NAMED_UNIT ( * ) PLANE_ANGLE_UNIT ( ) SI_UNIT ( $, .RADIAN. ) );
#154 = DIRECTION ( 'NONE',  ( 0.0000000000000000000, 0.0000000000000000000, 1.000000000000000000 ) ) ;
#155 =( LENGTH_UNIT ( ) NAMED_UNIT ( * ) SI_UNIT ( .MILLI., .METRE. ) );
#156 =( NAMED_UNIT ( * ) SI_UNIT ( $, .STERADIAN. ) SOLID_ANGLE_UNIT ( ) );
#157 = SHAPE_DEFINITION_REPRESENTATION ( #15, #67 ) ;
#158 = AXIS2_PLACEMENT_3D ( 'NONE', #170, #122, #140 ) ;
#159 = PRESENTATION_LAYER_ASSIGNMENT (  '', '', ( #176 ) ) ;
#160 = CARTESIAN_POINT ( 'NONE',  ( 60.25000000000000000, 0.0000000000000000000, -2.000000000000000000 ) ) ;
#161 = CIRCLE ( 'NONE', #158, 60.25000000000000000 ) ;
#162 = UNCERTAINTY_MEASURE_WITH_UNIT (LENGTH_MEASURE( 1.000000000000000100E-005 ), #165, 'distance_accuracy_value', 'NONE');
#163 = AXIS2_PLACEMENT_3D ( 'NONE', #139, #185, #186 ) ;
#164 = ORIENTED_EDGE ( 'NONE', *, *, #73, .F. ) ;
#165 =( LENGTH_UNIT ( ) NAMED_UNIT ( * ) SI_UNIT ( .MILLI., .METRE. ) );
#166 =( NAMED_UNIT ( * ) PLANE_ANGLE_UNIT ( ) SI_UNIT ( $, .RADIAN. ) );
#167 = PRESENTATION_STYLE_ASSIGNMENT (( #29 ) ) ;
#168 = DIRECTION ( 'NONE',  ( 0.0000000000000000000, 0.0000000000000000000, 1.000000000000000000 ) ) ;
#169 = FACE_OUTER_BOUND ( 'NONE', #106, .T. ) ;
#170 = CARTESIAN_POINT ( 'NONE',  ( 0.0000000000000000000, 0.0000000000000000000, -2.000000000000000000 ) ) ;
#171 = ORIENTED_EDGE ( 'NONE', *, *, #34, .F. ) ;
#172 = APPLICATION_CONTEXT ( 'automotive_design' ) ;
#173 = PRODUCT_DEFINITION_FORMATION_WITH_SPECIFIED_SOURCE ( 'ANY', '', #60, .NOT_KNOWN. ) ;
#174 = ORIENTED_EDGE ( 'NONE', *, *, #209, .T. ) ;
#175 = SURFACE_STYLE_FILL_AREA ( #79 ) ;
#176 = STYLED_ITEM ( 'NONE', ( #195 ), #67 ) ;
#177 = VERTEX_POINT ( 'NONE', #160 ) ;
#178 = ADVANCED_FACE ( 'NONE', ( #119 ), #91, .T. ) ;
#179 = EDGE_CURVE ( 'NONE', #28, #115, #210, .T. ) ;
#180 = CIRCLE ( 'NONE', #188, 60.25000000000000000 ) ;
#181 = PLANE ( 'NONE',  #163 ) ;
#182 = ORIENTED_EDGE ( 'NONE', *, *, #25, .T. ) ;
#183 = CARTESIAN_POINT ( 'NONE',  ( -50.79999999999999700, 6.221205739668553700E-015, -2.000000000000000000 ) ) ;
#184 = ORIENTED_EDGE ( 'NONE', *, *, #59, .T. ) ;
#185 = DIRECTION ( 'NONE',  ( 0.0000000000000000000, 0.0000000000000000000, 1.000000000000000000 ) ) ;
#186 = DIRECTION ( 'NONE',  ( 1.000000000000000000, 0.0000000000000000000, -0.0000000000000000000 ) ) ;
#187 = CIRCLE ( 'NONE', #206, 50.79999999999999700 ) ;
#188 = AXIS2_PLACEMENT_3D ( 'NONE', #200, #17, #3 ) ;
#189 = ORIENTED_EDGE ( 'NONE', *, *, #14, .T. ) ;
#190 =( NAMED_UNIT ( * ) PLANE_ANGLE_UNIT ( ) SI_UNIT ( $, .RADIAN. ) );
#191 = VERTEX_POINT ( 'NONE', #7 ) ;
#192 =( NAMED_UNIT ( * ) SI_UNIT ( $, .STERADIAN. ) SOLID_ANGLE_UNIT ( ) );
#193 = AXIS2_PLACEMENT_3D ( 'NONE', #129, #33, #37 ) ;
#194 = PRODUCT_CONTEXT ( 'NONE', #172, 'mechanical' ) ;
#195 = PRESENTATION_STYLE_ASSIGNMENT (( #102 ) ) ;
#196 = FACE_OUTER_BOUND ( 'NONE', #213, .T. ) ;
#197 = COLOUR_RGB ( '',0.7529411764705882200, 0.7529411764705882200, 0.7529411764705882200 ) ;
#198 = AXIS2_PLACEMENT_3D ( 'NONE', #130, #127, #143 ) ;
#199 = CARTESIAN_POINT ( 'NONE',  ( -60.25000000000000000, 7.378496964862802100E-015, -2.000000000000000000 ) ) ;
#200 = CARTESIAN_POINT ( 'NONE',  ( 0.0000000000000000000, 0.0000000000000000000, -2.000000000000000000 ) ) ;
#201 = DIRECTION ( 'NONE',  ( 0.0000000000000000000, 0.0000000000000000000, 1.000000000000000000 ) ) ;
#202 = DIRECTION ( 'NONE',  ( 1.000000000000000000, 0.0000000000000000000, 0.0000000000000000000 ) ) ;
#203 = AXIS2_PLACEMENT_3D ( 'NONE', #84, #1, #55 ) ;
#204 =( NAMED_UNIT ( * ) SI_UNIT ( $, .STERADIAN. ) SOLID_ANGLE_UNIT ( ) );
#205 = FACE_OUTER_BOUND ( 'NONE', #121, .T. ) ;
#206 = AXIS2_PLACEMENT_3D ( 'NONE', #53, #68, #48 ) ;
#207 = VECTOR ( 'NONE', #30, 1000.000000000000000 ) ;
#208 = ORIENTED_EDGE ( 'NONE', *, *, #96, .F. ) ;
#209 = EDGE_CURVE ( 'NONE', #9, #56, #10, .T. ) ;
#210 = CIRCLE ( 'NONE', #193, 50.79999999999999700 ) ;
#211 = APPLICATION_PROTOCOL_DEFINITION ( 'draft international standard', 'automotive_design', 1998, #120 ) ;
#212 = CARTESIAN_POINT ( 'NONE',  ( -60.25000000000000000, 7.378496964862802100E-015, -2.000000000000000000 ) ) ;
#213 = EDGE_LOOP ( 'NONE', ( #208, #151, #18, #189 ) ) ;
#214 = EDGE_LOOP ( 'NONE', ( #133, #171 ) ) ;
ENDSEC;
END-ISO-10303-21;
