ISO-10303-21;
HEADER;
FILE_DESCRIPTION (( 'STEP AP214' ),
    '1' );
FILE_NAME ('306DOR400-S1.step',
    '2017-07-07T05:02:03',
    ( 'install' ),
    ( '' ),
    'SwSTEP 2.0',
    'SolidWorks 2015',
    '' );
FILE_SCHEMA (( 'AUTOMOTIVE_DESIGN' ));
ENDSEC;

DATA;
#1 = FACE_OUTER_BOUND ( 'NONE', #15, .T. ) ;
#2 =( NAMED_UNIT ( * ) SI_UNIT ( $, .STERADIAN. ) SOLID_ANGLE_UNIT ( ) );
#3 = ORIENTED_EDGE ( 'NONE', *, *, #144, .F. ) ;
#4 = CARTESIAN_POINT ( 'NONE',  ( 0.0000000000000000000, 0.0000000000000000000, 0.0000000000000000000 ) ) ;
#5 = AXIS2_PLACEMENT_3D ( 'NONE', #112, #48, #125 ) ;
#6 = CARTESIAN_POINT ( 'NONE',  ( 0.0000000000000000000, 0.0000000000000000000, 0.0000000000000000000 ) ) ;
#7 = PRODUCT_CONTEXT ( 'NONE', #100, 'mechanical' ) ;
#8 = EDGE_CURVE ( 'NONE', #87, #102, #42, .T. ) ;
#9 = EDGE_LOOP ( 'NONE', ( #50, #116, #124, #35 ) ) ;
#10 = ORIENTED_EDGE ( 'NONE', *, *, #62, .T. ) ;
#11 = AXIS2_PLACEMENT_3D ( 'NONE', #69, #147, #77 ) ;
#12 = SURFACE_STYLE_FILL_AREA ( #34 ) ;
#13 = CARTESIAN_POINT ( 'NONE',  ( 0.0000000000000000000, 0.0000000000000000000, 0.0000000000000000000 ) ) ;
#14 = CARTESIAN_POINT ( 'NONE',  ( 0.0000000000000000000, 0.0000000000000000000, 0.0000000000000000000 ) ) ;
#15 = EDGE_LOOP ( 'NONE', ( #44, #115, #82, #74 ) ) ;
#16 = CARTESIAN_POINT ( 'NONE',  ( 0.0000000000000000000, 0.0000000000000000000, 0.0000000000000000000 ) ) ;
#17 = CARTESIAN_POINT ( 'NONE',  ( 0.0000000000000000000, 0.0000000000000000000, 0.0000000000000000000 ) ) ;
#18 = DIRECTION ( 'NONE',  ( -1.000000000000000000, 0.0000000000000000000, 0.0000000000000000000 ) ) ;
#19 = AXIS2_PLACEMENT_3D ( 'NONE', #14, #57, #52 ) ;
#20 = CARTESIAN_POINT ( 'NONE',  ( 0.0000000000000000000, 0.0000000000000000000, 0.0000000000000000000 ) ) ;
#21 = CARTESIAN_POINT ( 'NONE',  ( 202.5000000000000000, 2.479909768273390500E-014, 0.0000000000000000000 ) ) ;
#22 = APPLICATION_PROTOCOL_DEFINITION ( 'draft international standard', 'automotive_design', 1998, #90 ) ;
#23 = CLOSED_SHELL ( 'NONE', ( #91, #83, #36, #140 ) ) ;
#24 = ORIENTED_EDGE ( 'NONE', *, *, #8, .T. ) ;
#25 = AXIS2_PLACEMENT_3D ( 'NONE', #20, #97, #33 ) ;
#26 = UNCERTAINTY_MEASURE_WITH_UNIT (LENGTH_MEASURE( 1.000000000000000100E-005 ), #128, 'distance_accuracy_value', 'NONE');
#27 = PRODUCT_DEFINITION_CONTEXT ( 'detailed design', #90, 'design' ) ;
#28 = CARTESIAN_POINT ( 'NONE',  ( 206.0000000000000300, 2.522772406243547800E-014, 0.0000000000000000000 ) ) ;
#29 = CARTESIAN_POINT ( 'NONE',  ( -202.5000000000000000, 0.0000000000000000000, 4.286263797015737600E-016 ) ) ;
#30 = AXIS2_PLACEMENT_3D ( 'NONE', #16, #158, #103 ) ;
#31 = SURFACE_STYLE_FILL_AREA ( #58 ) ;
#32 = AXIS2_PLACEMENT_3D ( 'NONE', #126, #60, #137 ) ;
#33 = DIRECTION ( 'NONE',  ( -1.000000000000000000, 0.0000000000000000000, 0.0000000000000000000 ) ) ;
#34 = FILL_AREA_STYLE ('',( #88 ) ) ;
#35 = ORIENTED_EDGE ( 'NONE', *, *, #62, .F. ) ;
#36 = ADVANCED_FACE ( 'NONE', ( #1 ), #71, .T. ) ;
#37 = DIRECTION ( 'NONE',  ( -1.000000000000000000, 0.0000000000000000000, 0.0000000000000000000 ) ) ;
#38 = CIRCLE ( 'NONE', #72, 3.500000000000003100 ) ;
#39 = FILL_AREA_STYLE_COLOUR ( '', #93 ) ;
#40 = PRODUCT ( '306DOR400-S1', '306DOR400-S1', '', ( #7 ) ) ;
#41 = SHAPE_DEFINITION_REPRESENTATION ( #113, #101 ) ;
#42 = CIRCLE ( 'NONE', #56, 3.500000000000003100 ) ;
#43 =( GEOMETRIC_REPRESENTATION_CONTEXT ( 3 ) GLOBAL_UNCERTAINTY_ASSIGNED_CONTEXT ( ( #46 ) ) GLOBAL_UNIT_ASSIGNED_CONTEXT ( ( #70, #148, #80 ) ) REPRESENTATION_CONTEXT ( 'NONE', 'WORKASPACE' ) );
#44 = ORIENTED_EDGE ( 'NONE', *, *, #153, .F. ) ;
#45 = DIRECTION ( 'NONE',  ( -1.224646799147353200E-016, 1.000000000000000000, 0.0000000000000000000 ) ) ;
#46 = UNCERTAINTY_MEASURE_WITH_UNIT (LENGTH_MEASURE( 1.000000000000000100E-005 ), #70, 'distance_accuracy_value', 'NONE');
#47 = DIRECTION ( 'NONE',  ( -1.000000000000000000, 0.0000000000000000000, 0.0000000000000000000 ) ) ;
#48 = DIRECTION ( 'NONE',  ( 0.0000000000000000000, -1.000000000000000000, 0.0000000000000000000 ) ) ;
#49 = SURFACE_STYLE_USAGE ( .BOTH. , #114 ) ;
#50 = ORIENTED_EDGE ( 'NONE', *, *, #8, .F. ) ;
#51 = AXIS2_PLACEMENT_3D ( 'NONE', #94, #84, #37 ) ;
#52 = DIRECTION ( 'NONE',  ( -1.000000000000000000, 0.0000000000000000000, 0.0000000000000000000 ) ) ;
#53 = ORIENTED_EDGE ( 'NONE', *, *, #154, .F. ) ;
#54 = AXIS2_PLACEMENT_3D ( 'NONE', #13, #121, #66 ) ;
#55 = CIRCLE ( 'NONE', #11, 3.500000000000002200 ) ;
#56 = AXIS2_PLACEMENT_3D ( 'NONE', #28, #156, #133 ) ;
#57 = DIRECTION ( 'NONE',  ( -0.0000000000000000000, -0.0000000000000000000, -1.000000000000000000 ) ) ;
#58 = FILL_AREA_STYLE ('',( #39 ) ) ;
#59 = STYLED_ITEM ( 'NONE', ( #96 ), #101 ) ;
#60 = DIRECTION ( 'NONE',  ( -0.0000000000000000000, -0.0000000000000000000, -1.000000000000000000 ) ) ;
#61 =( NAMED_UNIT ( * ) PLANE_ANGLE_UNIT ( ) SI_UNIT ( $, .RADIAN. ) );
#62 = EDGE_CURVE ( 'NONE', #102, #134, #119, .T. ) ;
#63 = FACE_OUTER_BOUND ( 'NONE', #75, .T. ) ;
#64 = UNCERTAINTY_MEASURE_WITH_UNIT (LENGTH_MEASURE( 1.000000000000000100E-005 ), #146, 'distance_accuracy_value', 'NONE');
#65 = PRESENTATION_LAYER_ASSIGNMENT (  '', '', ( #59 ) ) ;
#66 = DIRECTION ( 'NONE',  ( -1.000000000000000000, 0.0000000000000000000, 0.0000000000000000000 ) ) ;
#67 = SURFACE_STYLE_USAGE ( .BOTH. , #135 ) ;
#68 = FACE_OUTER_BOUND ( 'NONE', #139, .T. ) ;
#69 = CARTESIAN_POINT ( 'NONE',  ( -206.0000000000000300, 0.0000000000000000000, 0.0000000000000000000 ) ) ;
#70 =( LENGTH_UNIT ( ) NAMED_UNIT ( * ) SI_UNIT ( .MILLI., .METRE. ) );
#71 = TOROIDAL_SURFACE ( 'NONE', #54, 206.0000000000000300, 3.500000000000002200 ) ;
#72 = AXIS2_PLACEMENT_3D ( 'NONE', #109, #45, #122 ) ;
#73 = MECHANICAL_DESIGN_GEOMETRIC_PRESENTATION_REPRESENTATION (  '', ( #59 ), #79 ) ;
#74 = ORIENTED_EDGE ( 'NONE', *, *, #98, .T. ) ;
#75 = EDGE_LOOP ( 'NONE', ( #3, #108, #10, #95 ) ) ;
#76 =( NAMED_UNIT ( * ) PLANE_ANGLE_UNIT ( ) SI_UNIT ( $, .RADIAN. ) );
#77 = DIRECTION ( 'NONE',  ( 0.0000000000000000000, 0.0000000000000000000, -1.000000000000000000 ) ) ;
#78 = CIRCLE ( 'NONE', #32, 202.5000000000000000 ) ;
#79 =( GEOMETRIC_REPRESENTATION_CONTEXT ( 3 ) GLOBAL_UNCERTAINTY_ASSIGNED_CONTEXT ( ( #26 ) ) GLOBAL_UNIT_ASSIGNED_CONTEXT ( ( #128, #61, #138 ) ) REPRESENTATION_CONTEXT ( 'NONE', 'WORKASPACE' ) );
#80 =( NAMED_UNIT ( * ) SI_UNIT ( $, .STERADIAN. ) SOLID_ANGLE_UNIT ( ) );
#81 = DIRECTION ( 'NONE',  ( 1.000000000000000000, 0.0000000000000000000, 0.0000000000000000000 ) ) ;
#82 = ORIENTED_EDGE ( 'NONE', *, *, #154, .T. ) ;
#83 = ADVANCED_FACE ( 'NONE', ( #68 ), #129, .T. ) ;
#84 = DIRECTION ( 'NONE',  ( -0.0000000000000000000, -0.0000000000000000000, -1.000000000000000000 ) ) ;
#85 = TOROIDAL_SURFACE ( 'NONE', #152, 206.0000000000000300, 3.500000000000002200 ) ;
#86 = DIRECTION ( 'NONE',  ( -0.0000000000000000000, -0.0000000000000000000, -1.000000000000000000 ) ) ;
#87 = VERTEX_POINT ( 'NONE', #157 ) ;
#88 = FILL_AREA_STYLE_COLOUR ( '', #132 ) ;
#89 = APPLICATION_PROTOCOL_DEFINITION ( 'draft international standard', 'automotive_design', 1998, #100 ) ;
#90 = APPLICATION_CONTEXT ( 'automotive_design' ) ;
#91 = ADVANCED_FACE ( 'NONE', ( #92 ), #155, .T. ) ;
#92 = FACE_OUTER_BOUND ( 'NONE', #9, .T. ) ;
#93 = COLOUR_RGB ( '',0.3843137254901960500, 0.3843137254901960500, 0.3843137254901960500 ) ;
#94 = CARTESIAN_POINT ( 'NONE',  ( 0.0000000000000000000, 0.0000000000000000000, 4.286263797015738600E-016 ) ) ;
#95 = ORIENTED_EDGE ( 'NONE', *, *, #145, .T. ) ;
#96 = PRESENTATION_STYLE_ASSIGNMENT (( #49 ) ) ;
#97 = DIRECTION ( 'NONE',  ( -0.0000000000000000000, -0.0000000000000000000, -1.000000000000000000 ) ) ;
#98 = EDGE_CURVE ( 'NONE', #102, #87, #38, .T. ) ;
#99 = AXIS2_PLACEMENT_3D ( 'NONE', #6, #149, #81 ) ;
#100 = APPLICATION_CONTEXT ( 'automotive_design' ) ;
#101 = ADVANCED_BREP_SHAPE_REPRESENTATION ( '306DOR400-S1', ( #104, #99 ), #43 ) ;
#102 = VERTEX_POINT ( 'NONE', #21 ) ;
#103 = DIRECTION ( 'NONE',  ( -1.000000000000000000, 0.0000000000000000000, 0.0000000000000000000 ) ) ;
#104 = MANIFOLD_SOLID_BREP ( 'Rotation1', #23 ) ;
#105 = ORIENTED_EDGE ( 'NONE', *, *, #150, .F. ) ;
#106 = CIRCLE ( 'NONE', #25, 209.5000000000000300 ) ;
#107 = PRODUCT_DEFINITION ( 'UNKNOWN', '', #117, #27 ) ;
#108 = ORIENTED_EDGE ( 'NONE', *, *, #98, .F. ) ;
#109 = CARTESIAN_POINT ( 'NONE',  ( 206.0000000000000300, 2.522772406243547800E-014, 0.0000000000000000000 ) ) ;
#110 = DIRECTION ( 'NONE',  ( -0.0000000000000000000, -0.0000000000000000000, -1.000000000000000000 ) ) ;
#111 = STYLED_ITEM ( 'NONE', ( #151 ), #104 ) ;
#112 = CARTESIAN_POINT ( 'NONE',  ( -206.0000000000000300, 0.0000000000000000000, 0.0000000000000000000 ) ) ;
#113 = PRODUCT_DEFINITION_SHAPE ( 'NONE', 'NONE',  #107 ) ;
#114 = SURFACE_SIDE_STYLE ('',( #12 ) ) ;
#115 = ORIENTED_EDGE ( 'NONE', *, *, #145, .F. ) ;
#116 = ORIENTED_EDGE ( 'NONE', *, *, #144, .T. ) ;
#117 = PRODUCT_DEFINITION_FORMATION_WITH_SPECIFIED_SOURCE ( 'ANY', '', #40, .NOT_KNOWN. ) ;
#118 = CARTESIAN_POINT ( 'NONE',  ( -209.5000000000000300, 0.0000000000000000000, 0.0000000000000000000 ) ) ;
#119 = CIRCLE ( 'NONE', #51, 202.5000000000000000 ) ;
#120 = PRESENTATION_LAYER_ASSIGNMENT (  '', '', ( #111 ) ) ;
#121 = DIRECTION ( 'NONE',  ( -0.0000000000000000000, -0.0000000000000000000, -1.000000000000000000 ) ) ;
#122 = DIRECTION ( 'NONE',  ( -1.000000000000000000, -1.224646799147349500E-016, 0.0000000000000000000 ) ) ;
#123 = CIRCLE ( 'NONE', #5, 3.500000000000002200 ) ;
#124 = ORIENTED_EDGE ( 'NONE', *, *, #150, .T. ) ;
#125 = DIRECTION ( 'NONE',  ( 0.0000000000000000000, 0.0000000000000000000, -1.000000000000000000 ) ) ;
#126 = CARTESIAN_POINT ( 'NONE',  ( 0.0000000000000000000, 0.0000000000000000000, 4.286263797015738600E-016 ) ) ;
#127 = PRODUCT_RELATED_PRODUCT_CATEGORY ( 'part', '', ( #40 ) ) ;
#128 =( LENGTH_UNIT ( ) NAMED_UNIT ( * ) SI_UNIT ( .MILLI., .METRE. ) );
#129 = TOROIDAL_SURFACE ( 'NONE', #19, 206.0000000000000300, 3.500000000000002200 ) ;
#130 = MECHANICAL_DESIGN_GEOMETRIC_PRESENTATION_REPRESENTATION (  '', ( #111 ), #136 ) ;
#131 = ORIENTED_EDGE ( 'NONE', *, *, #153, .T. ) ;
#132 = COLOUR_RGB ( '',0.3843137254901960500, 0.3843137254901960500, 0.3843137254901960500 ) ;
#133 = DIRECTION ( 'NONE',  ( -1.000000000000000000, -1.224646799147349500E-016, 0.0000000000000000000 ) ) ;
#134 = VERTEX_POINT ( 'NONE', #29 ) ;
#135 = SURFACE_SIDE_STYLE ('',( #31 ) ) ;
#136 =( GEOMETRIC_REPRESENTATION_CONTEXT ( 3 ) GLOBAL_UNCERTAINTY_ASSIGNED_CONTEXT ( ( #64 ) ) GLOBAL_UNIT_ASSIGNED_CONTEXT ( ( #146, #76, #2 ) ) REPRESENTATION_CONTEXT ( 'NONE', 'WORKASPACE' ) );
#137 = DIRECTION ( 'NONE',  ( -1.000000000000000000, 0.0000000000000000000, 0.0000000000000000000 ) ) ;
#138 =( NAMED_UNIT ( * ) SI_UNIT ( $, .STERADIAN. ) SOLID_ANGLE_UNIT ( ) );
#139 = EDGE_LOOP ( 'NONE', ( #105, #131, #24, #53 ) ) ;
#140 = ADVANCED_FACE ( 'NONE', ( #63 ), #85, .T. ) ;
#141 = CIRCLE ( 'NONE', #143, 209.5000000000000300 ) ;
#142 = VERTEX_POINT ( 'NONE', #118 ) ;
#143 = AXIS2_PLACEMENT_3D ( 'NONE', #4, #86, #18 ) ;
#144 = EDGE_CURVE ( 'NONE', #87, #142, #141, .T. ) ;
#145 = EDGE_CURVE ( 'NONE', #134, #142, #123, .T. ) ;
#146 =( LENGTH_UNIT ( ) NAMED_UNIT ( * ) SI_UNIT ( .MILLI., .METRE. ) );
#147 = DIRECTION ( 'NONE',  ( 0.0000000000000000000, -1.000000000000000000, 0.0000000000000000000 ) ) ;
#148 =( NAMED_UNIT ( * ) PLANE_ANGLE_UNIT ( ) SI_UNIT ( $, .RADIAN. ) );
#149 = DIRECTION ( 'NONE',  ( 0.0000000000000000000, 0.0000000000000000000, 1.000000000000000000 ) ) ;
#150 = EDGE_CURVE ( 'NONE', #142, #134, #55, .T. ) ;
#151 = PRESENTATION_STYLE_ASSIGNMENT (( #67 ) ) ;
#152 = AXIS2_PLACEMENT_3D ( 'NONE', #17, #110, #47 ) ;
#153 = EDGE_CURVE ( 'NONE', #142, #87, #106, .T. ) ;
#154 = EDGE_CURVE ( 'NONE', #134, #102, #78, .T. ) ;
#155 = TOROIDAL_SURFACE ( 'NONE', #30, 206.0000000000000300, 3.500000000000002200 ) ;
#156 = DIRECTION ( 'NONE',  ( -1.224646799147353200E-016, 1.000000000000000000, 0.0000000000000000000 ) ) ;
#157 = CARTESIAN_POINT ( 'NONE',  ( 209.5000000000000300, 2.565635044213705100E-014, 0.0000000000000000000 ) ) ;
#158 = DIRECTION ( 'NONE',  ( -0.0000000000000000000, -0.0000000000000000000, -1.000000000000000000 ) ) ;
ENDSEC;
END-ISO-10303-21;
