ISO-10303-21;
HEADER;
FILE_DESCRIPTION (( 'STEP AP214' ),
    '1' );
FILE_NAME ('302DOR200-S1.step',
    '2017-07-07T05:04:00',
    ( 'install' ),
    ( '' ),
    'SwSTEP 2.0',
    'SolidWorks 2015',
    '' );
FILE_SCHEMA (( 'AUTOMOTIVE_DESIGN' ));
ENDSEC;

DATA;
#1 = VERTEX_POINT ( 'NONE', #123 ) ;
#2 = ADVANCED_FACE ( 'NONE', ( #35 ), #115, .T. ) ;
#3 = EDGE_CURVE ( 'NONE', #117, #89, #107, .T. ) ;
#4 = ADVANCED_FACE ( 'NONE', ( #142 ), #31, .T. ) ;
#5 = PRODUCT_RELATED_PRODUCT_CATEGORY ( 'part', '', ( #82 ) ) ;
#6 = ORIENTED_EDGE ( 'NONE', *, *, #32, .T. ) ;
#7 = AXIS2_PLACEMENT_3D ( 'NONE', #153, #112, #126 ) ;
#8 = SURFACE_STYLE_USAGE ( .BOTH. , #139 ) ;
#9 =( LENGTH_UNIT ( ) NAMED_UNIT ( * ) SI_UNIT ( .MILLI., .METRE. ) );
#10 = PRODUCT_CONTEXT ( 'NONE', #111, 'mechanical' ) ;
#11 = CARTESIAN_POINT ( 'NONE',  ( -107.1649999999999900, 0.0000000000000000000, 0.0000000000000000000 ) ) ;
#12 = DIRECTION ( 'NONE',  ( -1.224646799147353200E-016, 1.000000000000000000, 0.0000000000000000000 ) ) ;
#13 = CARTESIAN_POINT ( 'NONE',  ( 0.0000000000000000000, 0.0000000000000000000, 0.0000000000000000000 ) ) ;
#14 = AXIS2_PLACEMENT_3D ( 'NONE', #46, #69, #92 ) ;
#15 = FACE_OUTER_BOUND ( 'NONE', #131, .T. ) ;
#16 = FILL_AREA_STYLE_COLOUR ( '', #26 ) ;
#17 = VERTEX_POINT ( 'NONE', #42 ) ;
#18 = ORIENTED_EDGE ( 'NONE', *, *, #71, .F. ) ;
#19 = AXIS2_PLACEMENT_3D ( 'NONE', #41, #79, #55 ) ;
#20 = PRODUCT_DEFINITION_SHAPE ( 'NONE', 'NONE',  #36 ) ;
#21 = UNCERTAINTY_MEASURE_WITH_UNIT (LENGTH_MEASURE( 1.000000000000000100E-005 ), #132, 'distance_accuracy_value', 'NONE');
#22 = CIRCLE ( 'NONE', #86, 2.665000000000000900 ) ;
#23 = STYLED_ITEM ( 'NONE', ( #34 ), #47 ) ;
#24 = EDGE_CURVE ( 'NONE', #1, #117, #73, .T. ) ;
#25 = APPLICATION_PROTOCOL_DEFINITION ( 'draft international standard', 'automotive_design', 1998, #95 ) ;
#26 = COLOUR_RGB ( '',0.3843137254901960500, 0.3843137254901960500, 0.3843137254901960500 ) ;
#27 = COLOUR_RGB ( '',0.3843137254901960500, 0.3843137254901960500, 0.3843137254901960500 ) ;
#28 = ADVANCED_FACE ( 'NONE', ( #88 ), #66, .T. ) ;
#29 = CIRCLE ( 'NONE', #14, 104.5000000000000000 ) ;
#30 = EDGE_LOOP ( 'NONE', ( #104, #6, #93, #18 ) ) ;
#31 = TOROIDAL_SURFACE ( 'NONE', #62, 107.1649999999999900, 2.664999999999997800 ) ;
#32 = EDGE_CURVE ( 'NONE', #17, #1, #53, .T. ) ;
#33 = FILL_AREA_STYLE ('',( #16 ) ) ;
#34 = PRESENTATION_STYLE_ASSIGNMENT (( #45 ) ) ;
#35 = FACE_OUTER_BOUND ( 'NONE', #78, .T. ) ;
#36 = PRODUCT_DEFINITION ( 'UNKNOWN', '', #81, #141 ) ;
#37 = MECHANICAL_DESIGN_GEOMETRIC_PRESENTATION_REPRESENTATION (  '', ( #23 ), #119 ) ;
#38 = DIRECTION ( 'NONE',  ( -0.0000000000000000000, -0.0000000000000000000, -1.000000000000000000 ) ) ;
#39 = PRESENTATION_STYLE_ASSIGNMENT (( #8 ) ) ;
#40 = ORIENTED_EDGE ( 'NONE', *, *, #106, .T. ) ;
#41 = CARTESIAN_POINT ( 'NONE',  ( 0.0000000000000000000, 0.0000000000000000000, 0.0000000000000000000 ) ) ;
#42 = CARTESIAN_POINT ( 'NONE',  ( -109.8300000000000000, 0.0000000000000000000, 0.0000000000000000000 ) ) ;
#43 = CARTESIAN_POINT ( 'NONE',  ( 0.0000000000000000000, 0.0000000000000000000, 0.0000000000000000000 ) ) ;
#44 =( NAMED_UNIT ( * ) PLANE_ANGLE_UNIT ( ) SI_UNIT ( $, .RADIAN. ) );
#45 = SURFACE_STYLE_USAGE ( .BOTH. , #125 ) ;
#46 = CARTESIAN_POINT ( 'NONE',  ( 0.0000000000000000000, 0.0000000000000000000, 3.263683719727693100E-016 ) ) ;
#47 = ADVANCED_BREP_SHAPE_REPRESENTATION ( '302DOR200-S1', ( #80, #85 ), #124 ) ;
#48 = DIRECTION ( 'NONE',  ( -0.0000000000000000000, -0.0000000000000000000, -1.000000000000000000 ) ) ;
#49 =( LENGTH_UNIT ( ) NAMED_UNIT ( * ) SI_UNIT ( .MILLI., .METRE. ) );
#50 = AXIS2_PLACEMENT_3D ( 'NONE', #110, #38, #67 ) ;
#51 = CARTESIAN_POINT ( 'NONE',  ( 0.0000000000000000000, 0.0000000000000000000, 0.0000000000000000000 ) ) ;
#52 = CLOSED_SHELL ( 'NONE', ( #99, #28, #2, #4 ) ) ;
#53 = CIRCLE ( 'NONE', #147, 109.8300000000000000 ) ;
#54 = ORIENTED_EDGE ( 'NONE', *, *, #106, .F. ) ;
#55 = DIRECTION ( 'NONE',  ( -1.000000000000000000, 0.0000000000000000000, 0.0000000000000000000 ) ) ;
#56 = DIRECTION ( 'NONE',  ( 0.0000000000000000000, 0.0000000000000000000, -1.000000000000000000 ) ) ;
#57 = EDGE_CURVE ( 'NONE', #17, #89, #135, .T. ) ;
#58 =( NAMED_UNIT ( * ) PLANE_ANGLE_UNIT ( ) SI_UNIT ( $, .RADIAN. ) );
#59 = DIRECTION ( 'NONE',  ( -1.000000000000000000, 0.0000000000000000000, 0.0000000000000000000 ) ) ;
#60 =( NAMED_UNIT ( * ) SI_UNIT ( $, .STERADIAN. ) SOLID_ANGLE_UNIT ( ) );
#61 = DIRECTION ( 'NONE',  ( -0.0000000000000000000, -0.0000000000000000000, -1.000000000000000000 ) ) ;
#62 = AXIS2_PLACEMENT_3D ( 'NONE', #65, #87, #140 ) ;
#63 = ORIENTED_EDGE ( 'NONE', *, *, #24, .F. ) ;
#64 = ORIENTED_EDGE ( 'NONE', *, *, #57, .T. ) ;
#65 = CARTESIAN_POINT ( 'NONE',  ( 0.0000000000000000000, 0.0000000000000000000, 0.0000000000000000000 ) ) ;
#66 = TOROIDAL_SURFACE ( 'NONE', #158, 107.1649999999999900, 2.664999999999997800 ) ;
#67 = DIRECTION ( 'NONE',  ( -1.000000000000000000, 0.0000000000000000000, 0.0000000000000000000 ) ) ;
#68 = CARTESIAN_POINT ( 'NONE',  ( 0.0000000000000000000, 0.0000000000000000000, 0.0000000000000000000 ) ) ;
#69 = DIRECTION ( 'NONE',  ( -0.0000000000000000000, -0.0000000000000000000, -1.000000000000000000 ) ) ;
#70 = CARTESIAN_POINT ( 'NONE',  ( 107.1649999999999900, 1.312392742306261000E-014, 0.0000000000000000000 ) ) ;
#71 = EDGE_CURVE ( 'NONE', #89, #117, #29, .T. ) ;
#72 = EDGE_CURVE ( 'NONE', #89, #17, #120, .T. ) ;
#73 = CIRCLE ( 'NONE', #7, 2.665000000000000900 ) ;
#74 = CARTESIAN_POINT ( 'NONE',  ( 104.5000000000000000, 1.279755905108984000E-014, 0.0000000000000000000 ) ) ;
#75 = AXIS2_PLACEMENT_3D ( 'NONE', #13, #48, #59 ) ;
#76 = FILL_AREA_STYLE_COLOUR ( '', #27 ) ;
#77 = CIRCLE ( 'NONE', #108, 109.8300000000000000 ) ;
#78 = EDGE_LOOP ( 'NONE', ( #113, #91, #134, #146 ) ) ;
#79 = DIRECTION ( 'NONE',  ( -0.0000000000000000000, -0.0000000000000000000, -1.000000000000000000 ) ) ;
#80 = MANIFOLD_SOLID_BREP ( 'Rotation1', #52 ) ;
#81 = PRODUCT_DEFINITION_FORMATION_WITH_SPECIFIED_SOURCE ( 'ANY', '', #82, .NOT_KNOWN. ) ;
#82 = PRODUCT ( '302DOR200-S1', '302DOR200-S1', '', ( #10 ) ) ;
#83 =( NAMED_UNIT ( * ) SI_UNIT ( $, .STERADIAN. ) SOLID_ANGLE_UNIT ( ) );
#84 = DIRECTION ( 'NONE',  ( 1.000000000000000000, 0.0000000000000000000, 0.0000000000000000000 ) ) ;
#85 = AXIS2_PLACEMENT_3D ( 'NONE', #51, #157, #84 ) ;
#86 = AXIS2_PLACEMENT_3D ( 'NONE', #70, #12, #136 ) ;
#87 = DIRECTION ( 'NONE',  ( -0.0000000000000000000, -0.0000000000000000000, -1.000000000000000000 ) ) ;
#88 = FACE_OUTER_BOUND ( 'NONE', #30, .T. ) ;
#89 = VERTEX_POINT ( 'NONE', #109 ) ;
#90 = SHAPE_DEFINITION_REPRESENTATION ( #20, #47 ) ;
#91 = ORIENTED_EDGE ( 'NONE', *, *, #72, .F. ) ;
#92 = DIRECTION ( 'NONE',  ( -1.000000000000000000, 0.0000000000000000000, 0.0000000000000000000 ) ) ;
#93 = ORIENTED_EDGE ( 'NONE', *, *, #24, .T. ) ;
#94 = APPLICATION_PROTOCOL_DEFINITION ( 'draft international standard', 'automotive_design', 1998, #111 ) ;
#95 = APPLICATION_CONTEXT ( 'automotive_design' ) ;
#96 = FILL_AREA_STYLE ('',( #76 ) ) ;
#97 = DIRECTION ( 'NONE',  ( -0.0000000000000000000, -0.0000000000000000000, -1.000000000000000000 ) ) ;
#98 = ORIENTED_EDGE ( 'NONE', *, *, #72, .T. ) ;
#99 = ADVANCED_FACE ( 'NONE', ( #15 ), #103, .T. ) ;
#100 = DIRECTION ( 'NONE',  ( -1.000000000000000000, 0.0000000000000000000, 0.0000000000000000000 ) ) ;
#101 = EDGE_CURVE ( 'NONE', #117, #1, #22, .T. ) ;
#102 = SURFACE_STYLE_FILL_AREA ( #96 ) ;
#103 = TOROIDAL_SURFACE ( 'NONE', #75, 107.1649999999999900, 2.664999999999997800 ) ;
#104 = ORIENTED_EDGE ( 'NONE', *, *, #57, .F. ) ;
#105 = DIRECTION ( 'NONE',  ( 0.0000000000000000000, 0.0000000000000000000, -1.000000000000000000 ) ) ;
#106 = EDGE_CURVE ( 'NONE', #1, #17, #77, .T. ) ;
#107 = CIRCLE ( 'NONE', #50, 104.5000000000000000 ) ;
#108 = AXIS2_PLACEMENT_3D ( 'NONE', #155, #114, #154 ) ;
#109 = CARTESIAN_POINT ( 'NONE',  ( -104.5000000000000000, 0.0000000000000000000, 3.263683719727689200E-016 ) ) ;
#110 = CARTESIAN_POINT ( 'NONE',  ( 0.0000000000000000000, 0.0000000000000000000, 3.263683719727693100E-016 ) ) ;
#111 = APPLICATION_CONTEXT ( 'automotive_design' ) ;
#112 = DIRECTION ( 'NONE',  ( -1.224646799147353200E-016, 1.000000000000000000, 0.0000000000000000000 ) ) ;
#113 = ORIENTED_EDGE ( 'NONE', *, *, #32, .F. ) ;
#114 = DIRECTION ( 'NONE',  ( -0.0000000000000000000, -0.0000000000000000000, -1.000000000000000000 ) ) ;
#115 = TOROIDAL_SURFACE ( 'NONE', #19, 107.1649999999999900, 2.664999999999997800 ) ;
#116 =( GEOMETRIC_REPRESENTATION_CONTEXT ( 3 ) GLOBAL_UNCERTAINTY_ASSIGNED_CONTEXT ( ( #133 ) ) GLOBAL_UNIT_ASSIGNED_CONTEXT ( ( #49, #44, #60 ) ) REPRESENTATION_CONTEXT ( 'NONE', 'WORKASPACE' ) );
#117 = VERTEX_POINT ( 'NONE', #74 ) ;
#118 = ORIENTED_EDGE ( 'NONE', *, *, #3, .F. ) ;
#119 =( GEOMETRIC_REPRESENTATION_CONTEXT ( 3 ) GLOBAL_UNCERTAINTY_ASSIGNED_CONTEXT ( ( #21 ) ) GLOBAL_UNIT_ASSIGNED_CONTEXT ( ( #132, #58, #145 ) ) REPRESENTATION_CONTEXT ( 'NONE', 'WORKASPACE' ) );
#120 = CIRCLE ( 'NONE', #144, 2.664999999999997800 ) ;
#121 = UNCERTAINTY_MEASURE_WITH_UNIT (LENGTH_MEASURE( 1.000000000000000100E-005 ), #9, 'distance_accuracy_value', 'NONE');
#122 = EDGE_LOOP ( 'NONE', ( #54, #137, #149, #98 ) ) ;
#123 = CARTESIAN_POINT ( 'NONE',  ( 109.8300000000000000, 1.345029579503537900E-014, 0.0000000000000000000 ) ) ;
#124 =( GEOMETRIC_REPRESENTATION_CONTEXT ( 3 ) GLOBAL_UNCERTAINTY_ASSIGNED_CONTEXT ( ( #121 ) ) GLOBAL_UNIT_ASSIGNED_CONTEXT ( ( #9, #156, #83 ) ) REPRESENTATION_CONTEXT ( 'NONE', 'WORKASPACE' ) );
#125 = SURFACE_SIDE_STYLE ('',( #127 ) ) ;
#126 = DIRECTION ( 'NONE',  ( -1.000000000000000000, -1.224646799147351500E-016, 0.0000000000000000000 ) ) ;
#127 = SURFACE_STYLE_FILL_AREA ( #33 ) ;
#128 = MECHANICAL_DESIGN_GEOMETRIC_PRESENTATION_REPRESENTATION (  '', ( #148 ), #116 ) ;
#129 = CARTESIAN_POINT ( 'NONE',  ( -107.1649999999999900, 0.0000000000000000000, 0.0000000000000000000 ) ) ;
#130 = DIRECTION ( 'NONE',  ( 0.0000000000000000000, -1.000000000000000000, 0.0000000000000000000 ) ) ;
#131 = EDGE_LOOP ( 'NONE', ( #63, #40, #64, #118 ) ) ;
#132 =( LENGTH_UNIT ( ) NAMED_UNIT ( * ) SI_UNIT ( .MILLI., .METRE. ) );
#133 = UNCERTAINTY_MEASURE_WITH_UNIT (LENGTH_MEASURE( 1.000000000000000100E-005 ), #49, 'distance_accuracy_value', 'NONE');
#134 = ORIENTED_EDGE ( 'NONE', *, *, #71, .T. ) ;
#135 = CIRCLE ( 'NONE', #138, 2.664999999999997800 ) ;
#136 = DIRECTION ( 'NONE',  ( -1.000000000000000000, -1.224646799147351500E-016, 0.0000000000000000000 ) ) ;
#137 = ORIENTED_EDGE ( 'NONE', *, *, #101, .F. ) ;
#138 = AXIS2_PLACEMENT_3D ( 'NONE', #11, #130, #56 ) ;
#139 = SURFACE_SIDE_STYLE ('',( #102 ) ) ;
#140 = DIRECTION ( 'NONE',  ( -1.000000000000000000, 0.0000000000000000000, 0.0000000000000000000 ) ) ;
#141 = PRODUCT_DEFINITION_CONTEXT ( 'detailed design', #95, 'design' ) ;
#142 = FACE_OUTER_BOUND ( 'NONE', #122, .T. ) ;
#143 = DIRECTION ( 'NONE',  ( -1.000000000000000000, 0.0000000000000000000, 0.0000000000000000000 ) ) ;
#144 = AXIS2_PLACEMENT_3D ( 'NONE', #129, #152, #105 ) ;
#145 =( NAMED_UNIT ( * ) SI_UNIT ( $, .STERADIAN. ) SOLID_ANGLE_UNIT ( ) );
#146 = ORIENTED_EDGE ( 'NONE', *, *, #101, .T. ) ;
#147 = AXIS2_PLACEMENT_3D ( 'NONE', #68, #97, #143 ) ;
#148 = STYLED_ITEM ( 'NONE', ( #39 ), #80 ) ;
#149 = ORIENTED_EDGE ( 'NONE', *, *, #3, .T. ) ;
#150 = PRESENTATION_LAYER_ASSIGNMENT (  '', '', ( #23 ) ) ;
#151 = PRESENTATION_LAYER_ASSIGNMENT (  '', '', ( #148 ) ) ;
#152 = DIRECTION ( 'NONE',  ( 0.0000000000000000000, -1.000000000000000000, 0.0000000000000000000 ) ) ;
#153 = CARTESIAN_POINT ( 'NONE',  ( 107.1649999999999900, 1.312392742306261000E-014, 0.0000000000000000000 ) ) ;
#154 = DIRECTION ( 'NONE',  ( -1.000000000000000000, 0.0000000000000000000, 0.0000000000000000000 ) ) ;
#155 = CARTESIAN_POINT ( 'NONE',  ( 0.0000000000000000000, 0.0000000000000000000, 0.0000000000000000000 ) ) ;
#156 =( NAMED_UNIT ( * ) PLANE_ANGLE_UNIT ( ) SI_UNIT ( $, .RADIAN. ) );
#157 = DIRECTION ( 'NONE',  ( 0.0000000000000000000, 0.0000000000000000000, 1.000000000000000000 ) ) ;
#158 = AXIS2_PLACEMENT_3D ( 'NONE', #43, #61, #100 ) ;
ENDSEC;
END-ISO-10303-21;
