ISO-10303-21;
HEADER;
FILE_DESCRIPTION (( 'STEP AP214' ),
    '1' );
FILE_NAME ('402DFL063-S1.step',
    '2017-07-07T09:58:06',
    ( 'install' ),
    ( '' ),
    'SwSTEP 2.0',
    'SolidWorks 2015',
    '' );
FILE_SCHEMA (( 'AUTOMOTIVE_DESIGN' ));
ENDSEC;

DATA;
#1 = DIRECTION ( 'NONE',  ( 1.000000000000000000, 0.0000000000000000000, 0.0000000000000000000 ) ) ;
#2 = CIRCLE ( 'NONE', #126, 41.20000000000001000 ) ;
#3 = AXIS2_PLACEMENT_3D ( 'NONE', #68, #83, #35 ) ;
#4 = EDGE_LOOP ( 'NONE', ( #130, #21, #205, #22 ) ) ;
#5 = VERTEX_POINT ( 'NONE', #113 ) ;
#6 = FACE_BOUND ( 'NONE', #9, .T. ) ;
#7 = ORIENTED_EDGE ( 'NONE', *, *, #138, .F. ) ;
#8 = VERTEX_POINT ( 'NONE', #213 ) ;
#9 = EDGE_LOOP ( 'NONE', ( #75, #120 ) ) ;
#10 = ORIENTED_EDGE ( 'NONE', *, *, #176, .T. ) ;
#11 = CARTESIAN_POINT ( 'NONE',  ( 0.0000000000000000000, 0.0000000000000000000, -3.000000000000000000 ) ) ;
#12 = AXIS2_PLACEMENT_3D ( 'NONE', #101, #100, #69 ) ;
#13 = ORIENTED_EDGE ( 'NONE', *, *, #161, .F. ) ;
#14 = DIRECTION ( 'NONE',  ( 0.0000000000000000000, 0.0000000000000000000, 1.000000000000000000 ) ) ;
#15 = CARTESIAN_POINT ( 'NONE',  ( 0.0000000000000000000, 0.0000000000000000000, -3.000000000000000000 ) ) ;
#16 = CARTESIAN_POINT ( 'NONE',  ( 41.20000000000001000, 0.0000000000000000000, -3.000000000000000000 ) ) ;
#17 = DIRECTION ( 'NONE',  ( 0.0000000000000000000, 0.0000000000000000000, 1.000000000000000000 ) ) ;
#18 = DIRECTION ( 'NONE',  ( 0.0000000000000000000, 0.0000000000000000000, 1.000000000000000000 ) ) ;
#19 = EDGE_LOOP ( 'NONE', ( #29, #89 ) ) ;
#20 = APPLICATION_CONTEXT ( 'automotive_design' ) ;
#21 = ORIENTED_EDGE ( 'NONE', *, *, #161, .T. ) ;
#22 = ORIENTED_EDGE ( 'NONE', *, *, #176, .F. ) ;
#23 = EDGE_CURVE ( 'NONE', #44, #77, #96, .T. ) ;
#24 = ORIENTED_EDGE ( 'NONE', *, *, #51, .T. ) ;
#25 = ORIENTED_EDGE ( 'NONE', *, *, #208, .T. ) ;
#26 = ORIENTED_EDGE ( 'NONE', *, *, #153, .T. ) ;
#27 = AXIS2_PLACEMENT_3D ( 'NONE', #149, #147, #131 ) ;
#28 = ORIENTED_EDGE ( 'NONE', *, *, #211, .F. ) ;
#29 = ORIENTED_EDGE ( 'NONE', *, *, #192, .T. ) ;
#30 = CIRCLE ( 'NONE', #206, 31.80000000000000100 ) ;
#31 = AXIS2_PLACEMENT_3D ( 'NONE', #98, #14, #67 ) ;
#32 = SURFACE_SIDE_STYLE ('',( #76 ) ) ;
#33 =( NAMED_UNIT ( * ) SI_UNIT ( $, .STERADIAN. ) SOLID_ANGLE_UNIT ( ) );
#34 = CARTESIAN_POINT ( 'NONE',  ( 31.80000000000000100, 0.0000000000000000000, 0.0000000000000000000 ) ) ;
#35 = DIRECTION ( 'NONE',  ( 1.000000000000000000, 0.0000000000000000000, 0.0000000000000000000 ) ) ;
#36 = VERTEX_POINT ( 'NONE', #34 ) ;
#37 = DIRECTION ( 'NONE',  ( 1.000000000000000000, 0.0000000000000000000, -0.0000000000000000000 ) ) ;
#38 = ADVANCED_FACE ( 'NONE', ( #112 ), #48, .F. ) ;
#39 = AXIS2_PLACEMENT_3D ( 'NONE', #15, #66, #184 ) ;
#40 = SURFACE_SIDE_STYLE ('',( #141 ) ) ;
#41 = CARTESIAN_POINT ( 'NONE',  ( 41.20000000000001000, 0.0000000000000000000, -3.000000000000000000 ) ) ;
#42 = EDGE_LOOP ( 'NONE', ( #109, #10 ) ) ;
#43 = VECTOR ( 'NONE', #195, 1000.000000000000000 ) ;
#44 = VERTEX_POINT ( 'NONE', #181 ) ;
#45 = CYLINDRICAL_SURFACE ( 'NONE', #39, 31.80000000000000100 ) ;
#46 = PRODUCT ( '402DFL063-S1', '402DFL063-S1', '', ( #118 ) ) ;
#47 = VERTEX_POINT ( 'NONE', #128 ) ;
#48 = CYLINDRICAL_SURFACE ( 'NONE', #31, 31.80000000000000100 ) ;
#49 = LINE ( 'NONE', #202, #133 ) ;
#50 =( GEOMETRIC_REPRESENTATION_CONTEXT ( 3 ) GLOBAL_UNCERTAINTY_ASSIGNED_CONTEXT ( ( #193 ) ) GLOBAL_UNIT_ASSIGNED_CONTEXT ( ( #55, #54, #33 ) ) REPRESENTATION_CONTEXT ( 'NONE', 'WORKASPACE' ) );
#51 = EDGE_CURVE ( 'NONE', #52, #8, #2, .T. ) ;
#52 = VERTEX_POINT ( 'NONE', #16 ) ;
#53 = ORIENTED_EDGE ( 'NONE', *, *, #23, .F. ) ;
#54 =( NAMED_UNIT ( * ) PLANE_ANGLE_UNIT ( ) SI_UNIT ( $, .RADIAN. ) );
#55 =( LENGTH_UNIT ( ) NAMED_UNIT ( * ) SI_UNIT ( .MILLI., .METRE. ) );
#56 = CARTESIAN_POINT ( 'NONE',  ( 0.0000000000000000000, 0.0000000000000000000, -3.000000000000000000 ) ) ;
#57 = ORIENTED_EDGE ( 'NONE', *, *, #192, .F. ) ;
#58 = ADVANCED_FACE ( 'NONE', ( #6, #179 ), #115, .T. ) ;
#59 = VECTOR ( 'NONE', #148, 1000.000000000000000 ) ;
#60 = ADVANCED_BREP_SHAPE_REPRESENTATION ( '402DFL063-S1', ( #103, #135 ), #50 ) ;
#61 = AXIS2_PLACEMENT_3D ( 'NONE', #56, #85, #37 ) ;
#62 = FILL_AREA_STYLE_COLOUR ( '', #65 ) ;
#63 = CIRCLE ( 'NONE', #12, 41.20000000000001000 ) ;
#64 = UNCERTAINTY_MEASURE_WITH_UNIT (LENGTH_MEASURE( 1.000000000000000100E-005 ), #166, 'distance_accuracy_value', 'NONE');
#65 = COLOUR_RGB ( '',0.3843137254901960500, 0.3843137254901960500, 0.3843137254901960500 ) ;
#66 = DIRECTION ( 'NONE',  ( 0.0000000000000000000, 0.0000000000000000000, 1.000000000000000000 ) ) ;
#67 = DIRECTION ( 'NONE',  ( 1.000000000000000000, 0.0000000000000000000, 0.0000000000000000000 ) ) ;
#68 = CARTESIAN_POINT ( 'NONE',  ( 0.0000000000000000000, 0.0000000000000000000, 0.0000000000000000000 ) ) ;
#69 = DIRECTION ( 'NONE',  ( 1.000000000000000000, 0.0000000000000000000, 0.0000000000000000000 ) ) ;
#70 = LINE ( 'NONE', #41, #74 ) ;
#71 =( LENGTH_UNIT ( ) NAMED_UNIT ( * ) SI_UNIT ( .MILLI., .METRE. ) );
#72 = STYLED_ITEM ( 'NONE', ( #171 ), #60 ) ;
#73 = EDGE_LOOP ( 'NONE', ( #24, #177, #28, #163 ) ) ;
#74 = VECTOR ( 'NONE', #209, 1000.000000000000000 ) ;
#75 = ORIENTED_EDGE ( 'NONE', *, *, #208, .F. ) ;
#76 = SURFACE_STYLE_FILL_AREA ( #124 ) ;
#77 = VERTEX_POINT ( 'NONE', #82 ) ;
#78 = ADVANCED_FACE ( 'NONE', ( #91, #173 ), #214, .F. ) ;
#79 = EDGE_CURVE ( 'NONE', #8, #139, #49, .T. ) ;
#80 = PRESENTATION_LAYER_ASSIGNMENT (  '', '', ( #72 ) ) ;
#81 = DIRECTION ( 'NONE',  ( 1.000000000000000000, 0.0000000000000000000, 0.0000000000000000000 ) ) ;
#82 = CARTESIAN_POINT ( 'NONE',  ( -31.80000000000000100, 3.894376821288583500E-015, 0.0000000000000000000 ) ) ;
#83 = DIRECTION ( 'NONE',  ( 0.0000000000000000000, 0.0000000000000000000, 1.000000000000000000 ) ) ;
#84 = ORIENTED_EDGE ( 'NONE', *, *, #199, .T. ) ;
#85 = DIRECTION ( 'NONE',  ( 0.0000000000000000000, 0.0000000000000000000, 1.000000000000000000 ) ) ;
#86 =( NAMED_UNIT ( * ) SI_UNIT ( $, .STERADIAN. ) SOLID_ANGLE_UNIT ( ) );
#87 = FACE_OUTER_BOUND ( 'NONE', #73, .T. ) ;
#88 = CARTESIAN_POINT ( 'NONE',  ( 0.0000000000000000000, 0.0000000000000000000, -3.000000000000000000 ) ) ;
#89 = ORIENTED_EDGE ( 'NONE', *, *, #138, .T. ) ;
#90 = PRODUCT_DEFINITION_CONTEXT ( 'detailed design', #20, 'design' ) ;
#91 = FACE_BOUND ( 'NONE', #19, .T. ) ;
#92 = MECHANICAL_DESIGN_GEOMETRIC_PRESENTATION_REPRESENTATION (  '', ( #72 ), #107 ) ;
#93 = ADVANCED_FACE ( 'NONE', ( #87 ), #191, .T. ) ;
#94 = ORIENTED_EDGE ( 'NONE', *, *, #23, .T. ) ;
#95 = ORIENTED_EDGE ( 'NONE', *, *, #153, .F. ) ;
#96 = LINE ( 'NONE', #160, #59 ) ;
#97 = DIRECTION ( 'NONE',  ( 1.000000000000000000, 0.0000000000000000000, 0.0000000000000000000 ) ) ;
#98 = CARTESIAN_POINT ( 'NONE',  ( 0.0000000000000000000, 0.0000000000000000000, -3.000000000000000000 ) ) ;
#99 = APPLICATION_CONTEXT ( 'automotive_design' ) ;
#100 = DIRECTION ( 'NONE',  ( 0.0000000000000000000, 0.0000000000000000000, 1.000000000000000000 ) ) ;
#101 = CARTESIAN_POINT ( 'NONE',  ( 0.0000000000000000000, 0.0000000000000000000, 0.0000000000000000000 ) ) ;
#102 = CARTESIAN_POINT ( 'NONE',  ( 0.0000000000000000000, 0.0000000000000000000, 0.0000000000000000000 ) ) ;
#103 = MANIFOLD_SOLID_BREP ( 'Aufsatz-Linear austragen1', #145 ) ;
#104 = CIRCLE ( 'NONE', #159, 41.20000000000001000 ) ;
#105 = DIRECTION ( 'NONE',  ( 0.0000000000000000000, 0.0000000000000000000, 1.000000000000000000 ) ) ;
#106 = CARTESIAN_POINT ( 'NONE',  ( 0.0000000000000000000, 0.0000000000000000000, -3.000000000000000000 ) ) ;
#107 =( GEOMETRIC_REPRESENTATION_CONTEXT ( 3 ) GLOBAL_UNCERTAINTY_ASSIGNED_CONTEXT ( ( #125 ) ) GLOBAL_UNIT_ASSIGNED_CONTEXT ( ( #71, #188, #86 ) ) REPRESENTATION_CONTEXT ( 'NONE', 'WORKASPACE' ) );
#108 = EDGE_LOOP ( 'NONE', ( #7, #94, #84, #95 ) ) ;
#109 = ORIENTED_EDGE ( 'NONE', *, *, #211, .T. ) ;
#110 = CIRCLE ( 'NONE', #3, 31.80000000000000100 ) ;
#111 = DIRECTION ( 'NONE',  ( 0.0000000000000000000, 0.0000000000000000000, 1.000000000000000000 ) ) ;
#112 = FACE_OUTER_BOUND ( 'NONE', #108, .T. ) ;
#113 = CARTESIAN_POINT ( 'NONE',  ( 31.80000000000000100, 0.0000000000000000000, -3.000000000000000000 ) ) ;
#114 = CARTESIAN_POINT ( 'NONE',  ( 0.0000000000000000000, 0.0000000000000000000, 0.0000000000000000000 ) ) ;
#115 = PLANE ( 'NONE',  #187 ) ;
#116 = CIRCLE ( 'NONE', #196, 41.20000000000001000 ) ;
#117 = DIRECTION ( 'NONE',  ( 1.000000000000000000, 0.0000000000000000000, 0.0000000000000000000 ) ) ;
#118 = PRODUCT_CONTEXT ( 'NONE', #99, 'mechanical' ) ;
#119 = EDGE_CURVE ( 'NONE', #52, #47, #70, .T. ) ;
#120 = ORIENTED_EDGE ( 'NONE', *, *, #199, .F. ) ;
#121 = CIRCLE ( 'NONE', #174, 31.80000000000000100 ) ;
#122 = ADVANCED_FACE ( 'NONE', ( #200 ), #164, .T. ) ;
#123 = PRESENTATION_STYLE_ASSIGNMENT (( #190 ) ) ;
#124 = FILL_AREA_STYLE ('',( #162 ) ) ;
#125 = UNCERTAINTY_MEASURE_WITH_UNIT (LENGTH_MEASURE( 1.000000000000000100E-005 ), #71, 'distance_accuracy_value', 'NONE');
#126 = AXIS2_PLACEMENT_3D ( 'NONE', #186, #18, #117 ) ;
#127 = DIRECTION ( 'NONE',  ( 0.0000000000000000000, 0.0000000000000000000, 1.000000000000000000 ) ) ;
#128 = CARTESIAN_POINT ( 'NONE',  ( 41.20000000000001000, 0.0000000000000000000, 0.0000000000000000000 ) ) ;
#129 = DIRECTION ( 'NONE',  ( 0.0000000000000000000, 0.0000000000000000000, 1.000000000000000000 ) ) ;
#130 = ORIENTED_EDGE ( 'NONE', *, *, #79, .F. ) ;
#131 = DIRECTION ( 'NONE',  ( 1.000000000000000000, 0.0000000000000000000, 0.0000000000000000000 ) ) ;
#132 = DIRECTION ( 'NONE',  ( 0.0000000000000000000, 0.0000000000000000000, 1.000000000000000000 ) ) ;
#133 = VECTOR ( 'NONE', #167, 1000.000000000000000 ) ;
#134 = APPLICATION_PROTOCOL_DEFINITION ( 'draft international standard', 'automotive_design', 1998, #20 ) ;
#135 = AXIS2_PLACEMENT_3D ( 'NONE', #165, #105, #1 ) ;
#136 = CARTESIAN_POINT ( 'NONE',  ( -41.20000000000001000, 5.045544812487095700E-015, 0.0000000000000000000 ) ) ;
#137 = MECHANICAL_DESIGN_GEOMETRIC_PRESENTATION_REPRESENTATION (  '', ( #140 ), #151 ) ;
#138 = EDGE_CURVE ( 'NONE', #44, #5, #121, .T. ) ;
#139 = VERTEX_POINT ( 'NONE', #136 ) ;
#140 = STYLED_ITEM ( 'NONE', ( #123 ), #103 ) ;
#141 = SURFACE_STYLE_FILL_AREA ( #168 ) ;
#142 = CARTESIAN_POINT ( 'NONE',  ( 31.80000000000000100, 0.0000000000000000000, -3.000000000000000000 ) ) ;
#143 = CARTESIAN_POINT ( 'NONE',  ( 0.0000000000000000000, 0.0000000000000000000, -3.000000000000000000 ) ) ;
#144 = PRODUCT_DEFINITION ( 'UNKNOWN', '', #158, #90 ) ;
#145 = CLOSED_SHELL ( 'NONE', ( #38, #93, #122, #78, #58, #204 ) ) ;
#146 = ORIENTED_EDGE ( 'NONE', *, *, #51, .F. ) ;
#147 = DIRECTION ( 'NONE',  ( 0.0000000000000000000, 0.0000000000000000000, 1.000000000000000000 ) ) ;
#148 = DIRECTION ( 'NONE',  ( 0.0000000000000000000, 0.0000000000000000000, 1.000000000000000000 ) ) ;
#149 = CARTESIAN_POINT ( 'NONE',  ( 0.0000000000000000000, 0.0000000000000000000, 0.0000000000000000000 ) ) ;
#150 = DIRECTION ( 'NONE',  ( 1.000000000000000000, 0.0000000000000000000, -0.0000000000000000000 ) ) ;
#151 =( GEOMETRIC_REPRESENTATION_CONTEXT ( 3 ) GLOBAL_UNCERTAINTY_ASSIGNED_CONTEXT ( ( #64 ) ) GLOBAL_UNIT_ASSIGNED_CONTEXT ( ( #166, #203, #152 ) ) REPRESENTATION_CONTEXT ( 'NONE', 'WORKASPACE' ) );
#152 =( NAMED_UNIT ( * ) SI_UNIT ( $, .STERADIAN. ) SOLID_ANGLE_UNIT ( ) );
#153 = EDGE_CURVE ( 'NONE', #5, #36, #207, .T. ) ;
#154 = SURFACE_STYLE_USAGE ( .BOTH. , #32 ) ;
#155 = DIRECTION ( 'NONE',  ( 1.000000000000000000, 0.0000000000000000000, 0.0000000000000000000 ) ) ;
#156 = PRODUCT_DEFINITION_SHAPE ( 'NONE', 'NONE',  #144 ) ;
#157 = FACE_OUTER_BOUND ( 'NONE', #194, .T. ) ;
#158 = PRODUCT_DEFINITION_FORMATION_WITH_SPECIFIED_SOURCE ( 'ANY', '', #46, .NOT_KNOWN. ) ;
#159 = AXIS2_PLACEMENT_3D ( 'NONE', #198, #127, #81 ) ;
#160 = CARTESIAN_POINT ( 'NONE',  ( -31.80000000000000100, 3.894376821288583500E-015, -3.000000000000000000 ) ) ;
#161 = EDGE_CURVE ( 'NONE', #8, #52, #104, .T. ) ;
#162 = FILL_AREA_STYLE_COLOUR ( '', #172 ) ;
#163 = ORIENTED_EDGE ( 'NONE', *, *, #119, .F. ) ;
#164 = CYLINDRICAL_SURFACE ( 'NONE', #189, 41.20000000000001000 ) ;
#165 = CARTESIAN_POINT ( 'NONE',  ( 0.0000000000000000000, 0.0000000000000000000, 0.0000000000000000000 ) ) ;
#166 =( LENGTH_UNIT ( ) NAMED_UNIT ( * ) SI_UNIT ( .MILLI., .METRE. ) );
#167 = DIRECTION ( 'NONE',  ( 0.0000000000000000000, 0.0000000000000000000, 1.000000000000000000 ) ) ;
#168 = FILL_AREA_STYLE ('',( #62 ) ) ;
#169 = PRODUCT_RELATED_PRODUCT_CATEGORY ( 'part', '', ( #46 ) ) ;
#170 = PRESENTATION_LAYER_ASSIGNMENT (  '', '', ( #140 ) ) ;
#171 = PRESENTATION_STYLE_ASSIGNMENT (( #154 ) ) ;
#172 = COLOUR_RGB ( '',0.3843137254901960500, 0.3843137254901960500, 0.3843137254901960500 ) ;
#173 = FACE_OUTER_BOUND ( 'NONE', #178, .T. ) ;
#174 = AXIS2_PLACEMENT_3D ( 'NONE', #11, #111, #210 ) ;
#175 = SHAPE_DEFINITION_REPRESENTATION ( #156, #60 ) ;
#176 = EDGE_CURVE ( 'NONE', #139, #47, #116, .T. ) ;
#177 = ORIENTED_EDGE ( 'NONE', *, *, #79, .T. ) ;
#178 = EDGE_LOOP ( 'NONE', ( #146, #13 ) ) ;
#179 = FACE_OUTER_BOUND ( 'NONE', #42, .T. ) ;
#180 = APPLICATION_PROTOCOL_DEFINITION ( 'draft international standard', 'automotive_design', 1998, #99 ) ;
#181 = CARTESIAN_POINT ( 'NONE',  ( -31.80000000000000100, 3.894376821288583500E-015, -3.000000000000000000 ) ) ;
#182 = AXIS2_PLACEMENT_3D ( 'NONE', #88, #201, #155 ) ;
#183 = DIRECTION ( 'NONE',  ( 1.000000000000000000, 0.0000000000000000000, 0.0000000000000000000 ) ) ;
#184 = DIRECTION ( 'NONE',  ( 1.000000000000000000, 0.0000000000000000000, 0.0000000000000000000 ) ) ;
#185 = DIRECTION ( 'NONE',  ( 1.000000000000000000, 0.0000000000000000000, 0.0000000000000000000 ) ) ;
#186 = CARTESIAN_POINT ( 'NONE',  ( 0.0000000000000000000, 0.0000000000000000000, -3.000000000000000000 ) ) ;
#187 = AXIS2_PLACEMENT_3D ( 'NONE', #102, #132, #150 ) ;
#188 =( NAMED_UNIT ( * ) PLANE_ANGLE_UNIT ( ) SI_UNIT ( $, .RADIAN. ) );
#189 = AXIS2_PLACEMENT_3D ( 'NONE', #106, #17, #183 ) ;
#190 = SURFACE_STYLE_USAGE ( .BOTH. , #40 ) ;
#191 = CYLINDRICAL_SURFACE ( 'NONE', #182, 41.20000000000001000 ) ;
#192 = EDGE_CURVE ( 'NONE', #5, #44, #30, .T. ) ;
#193 = UNCERTAINTY_MEASURE_WITH_UNIT (LENGTH_MEASURE( 1.000000000000000100E-005 ), #55, 'distance_accuracy_value', 'NONE');
#194 = EDGE_LOOP ( 'NONE', ( #53, #57, #26, #25 ) ) ;
#195 = DIRECTION ( 'NONE',  ( 0.0000000000000000000, 0.0000000000000000000, 1.000000000000000000 ) ) ;
#196 = AXIS2_PLACEMENT_3D ( 'NONE', #114, #197, #185 ) ;
#197 = DIRECTION ( 'NONE',  ( 0.0000000000000000000, 0.0000000000000000000, 1.000000000000000000 ) ) ;
#198 = CARTESIAN_POINT ( 'NONE',  ( 0.0000000000000000000, 0.0000000000000000000, -3.000000000000000000 ) ) ;
#199 = EDGE_CURVE ( 'NONE', #77, #36, #110, .T. ) ;
#200 = FACE_OUTER_BOUND ( 'NONE', #4, .T. ) ;
#201 = DIRECTION ( 'NONE',  ( 0.0000000000000000000, 0.0000000000000000000, 1.000000000000000000 ) ) ;
#202 = CARTESIAN_POINT ( 'NONE',  ( -41.20000000000001000, 5.045544812487095700E-015, -3.000000000000000000 ) ) ;
#203 =( NAMED_UNIT ( * ) PLANE_ANGLE_UNIT ( ) SI_UNIT ( $, .RADIAN. ) );
#204 = ADVANCED_FACE ( 'NONE', ( #157 ), #45, .F. ) ;
#205 = ORIENTED_EDGE ( 'NONE', *, *, #119, .T. ) ;
#206 = AXIS2_PLACEMENT_3D ( 'NONE', #143, #129, #97 ) ;
#207 = LINE ( 'NONE', #142, #43 ) ;
#208 = EDGE_CURVE ( 'NONE', #36, #77, #212, .T. ) ;
#209 = DIRECTION ( 'NONE',  ( 0.0000000000000000000, 0.0000000000000000000, 1.000000000000000000 ) ) ;
#210 = DIRECTION ( 'NONE',  ( 1.000000000000000000, 0.0000000000000000000, 0.0000000000000000000 ) ) ;
#211 = EDGE_CURVE ( 'NONE', #47, #139, #63, .T. ) ;
#212 = CIRCLE ( 'NONE', #27, 31.80000000000000100 ) ;
#213 = CARTESIAN_POINT ( 'NONE',  ( -41.20000000000001000, 5.045544812487095700E-015, -3.000000000000000000 ) ) ;
#214 = PLANE ( 'NONE',  #61 ) ;
ENDSEC;
END-ISO-10303-21;
