ISO-10303-21;
HEADER;
FILE_DESCRIPTION (( 'STEP AP214' ),
    '1' );
FILE_NAME ('490DFL250-S-S5.stp',
    '2017-10-11T11:18:02',
    ( '' ),
    ( '' ),
    'SwSTEP 2.0',
    'SolidWorks 2015',
    '' );
FILE_SCHEMA (( 'AUTOMOTIVE_DESIGN' ));
ENDSEC;

DATA;
#1 = COLOUR_RGB ( '',0.7529411764705882200, 0.7529411764705882200, 0.7529411764705882200 ) ;
#2 = EDGE_CURVE ( 'NONE', #100, #137, #162, .T. ) ;
#3 = CARTESIAN_POINT ( 'NONE',  ( 0.0000000000000000000, 0.0000000000000000000, -2.000000000000000000 ) ) ;
#4 = AXIS2_PLACEMENT_3D ( 'NONE', #65, #139, #191 ) ;
#5 = APPLICATION_CONTEXT ( 'automotive_design' ) ;
#6 = AXIS2_PLACEMENT_3D ( 'NONE', #40, #62, #118 ) ;
#7 =( NAMED_UNIT ( * ) SI_UNIT ( $, .STERADIAN. ) SOLID_ANGLE_UNIT ( ) );
#8 = APPLICATION_CONTEXT ( 'automotive_design' ) ;
#9 = ORIENTED_EDGE ( 'NONE', *, *, #69, .T. ) ;
#10 = APPLICATION_PROTOCOL_DEFINITION ( 'draft international standard', 'automotive_design', 1998, #8 ) ;
#11 = EDGE_CURVE ( 'NONE', #36, #84, #74, .T. ) ;
#12 = VERTEX_POINT ( 'NONE', #133 ) ;
#13 = CARTESIAN_POINT ( 'NONE',  ( -127.0000000000000000, 1.555301434917138600E-014, -2.000000000000000000 ) ) ;
#14 = AXIS2_PLACEMENT_3D ( 'NONE', #203, #173, #207 ) ;
#15 = DIRECTION ( 'NONE',  ( 1.000000000000000000, 0.0000000000000000000, 0.0000000000000000000 ) ) ;
#16 = COLOUR_RGB ( '',0.7529411764705882200, 0.7529411764705882200, 0.7529411764705882200 ) ;
#17 = CARTESIAN_POINT ( 'NONE',  ( 127.0000000000000000, 0.0000000000000000000, -2.000000000000000000 ) ) ;
#18 = PRODUCT ( '490DFL250-S-S5', '490DFL250-S-S5', '', ( #193 ) ) ;
#19 = EDGE_CURVE ( 'NONE', #84, #12, #20, .T. ) ;
#20 = LINE ( 'NONE', #13, #189 ) ;
#21 = CARTESIAN_POINT ( 'NONE',  ( 0.0000000000000000000, 0.0000000000000000000, -2.000000000000000000 ) ) ;
#22 = EDGE_LOOP ( 'NONE', ( #87, #79, #24, #67 ) ) ;
#23 = CARTESIAN_POINT ( 'NONE',  ( 0.0000000000000000000, 0.0000000000000000000, -2.000000000000000000 ) ) ;
#24 = ORIENTED_EDGE ( 'NONE', *, *, #49, .T. ) ;
#25 =( LENGTH_UNIT ( ) NAMED_UNIT ( * ) SI_UNIT ( .MILLI., .METRE. ) );
#26 = EDGE_CURVE ( 'NONE', #137, #100, #61, .T. ) ;
#27 =( NAMED_UNIT ( * ) SI_UNIT ( $, .STERADIAN. ) SOLID_ANGLE_UNIT ( ) );
#28 = VECTOR ( 'NONE', #106, 1000.000000000000000 ) ;
#29 = VERTEX_POINT ( 'NONE', #160 ) ;
#30 = AXIS2_PLACEMENT_3D ( 'NONE', #3, #188, #146 ) ;
#31 = ORIENTED_EDGE ( 'NONE', *, *, #11, .F. ) ;
#32 = EDGE_CURVE ( 'NONE', #36, #95, #190, .T. ) ;
#33 = UNCERTAINTY_MEASURE_WITH_UNIT (LENGTH_MEASURE( 1.000000000000000100E-005 ), #25, 'distance_accuracy_value', 'NONE');
#34 = ORIENTED_EDGE ( 'NONE', *, *, #11, .T. ) ;
#35 = MANIFOLD_SOLID_BREP ( 'Aufsatz-Linear austragen1', #38 ) ;
#36 = VERTEX_POINT ( 'NONE', #113 ) ;
#37 = AXIS2_PLACEMENT_3D ( 'NONE', #21, #78, #109 ) ;
#38 = CLOSED_SHELL ( 'NONE', ( #98, #209, #123, #82, #185, #41 ) ) ;
#39 = EDGE_LOOP ( 'NONE', ( #77, #117, #60, #121 ) ) ;
#40 = CARTESIAN_POINT ( 'NONE',  ( 0.0000000000000000000, 0.0000000000000000000, 0.0000000000000000000 ) ) ;
#41 = ADVANCED_FACE ( 'NONE', ( #43 ), #179, .F. ) ;
#42 =( GEOMETRIC_REPRESENTATION_CONTEXT ( 3 ) GLOBAL_UNCERTAINTY_ASSIGNED_CONTEXT ( ( #141 ) ) GLOBAL_UNIT_ASSIGNED_CONTEXT ( ( #104, #86, #27 ) ) REPRESENTATION_CONTEXT ( 'NONE', 'WORKASPACE' ) );
#43 = FACE_OUTER_BOUND ( 'NONE', #213, .T. ) ;
#44 = EDGE_LOOP ( 'NONE', ( #129, #63 ) ) ;
#45 = DIRECTION ( 'NONE',  ( 0.0000000000000000000, 0.0000000000000000000, 1.000000000000000000 ) ) ;
#46 = CARTESIAN_POINT ( 'NONE',  ( 136.4499999999999900, 0.0000000000000000000, -2.000000000000000000 ) ) ;
#47 = SURFACE_SIDE_STYLE ('',( #127 ) ) ;
#48 = DIRECTION ( 'NONE',  ( 1.000000000000000000, 0.0000000000000000000, -0.0000000000000000000 ) ) ;
#49 = EDGE_CURVE ( 'NONE', #12, #95, #195, .T. ) ;
#50 = SURFACE_STYLE_USAGE ( .BOTH. , #47 ) ;
#51 = CARTESIAN_POINT ( 'NONE',  ( 136.4499999999999900, 0.0000000000000000000, 0.0000000000000000000 ) ) ;
#52 = APPLICATION_PROTOCOL_DEFINITION ( 'draft international standard', 'automotive_design', 1998, #5 ) ;
#53 = ORIENTED_EDGE ( 'NONE', *, *, #130, .F. ) ;
#54 = ORIENTED_EDGE ( 'NONE', *, *, #32, .T. ) ;
#55 = UNCERTAINTY_MEASURE_WITH_UNIT (LENGTH_MEASURE( 1.000000000000000100E-005 ), #135, 'distance_accuracy_value', 'NONE');
#56 = STYLED_ITEM ( 'NONE', ( #140 ), #35 ) ;
#57 = FACE_OUTER_BOUND ( 'NONE', #22, .T. ) ;
#58 = PRESENTATION_LAYER_ASSIGNMENT (  '', '', ( #125 ) ) ;
#59 = DIRECTION ( 'NONE',  ( 1.000000000000000000, 0.0000000000000000000, 0.0000000000000000000 ) ) ;
#60 = ORIENTED_EDGE ( 'NONE', *, *, #200, .T. ) ;
#61 = CIRCLE ( 'NONE', #124, 136.4499999999999900 ) ;
#62 = DIRECTION ( 'NONE',  ( 0.0000000000000000000, 0.0000000000000000000, 1.000000000000000000 ) ) ;
#63 = ORIENTED_EDGE ( 'NONE', *, *, #2, .F. ) ;
#64 = ORIENTED_EDGE ( 'NONE', *, *, #26, .T. ) ;
#65 = CARTESIAN_POINT ( 'NONE',  ( 0.0000000000000000000, 0.0000000000000000000, 0.0000000000000000000 ) ) ;
#66 = DIRECTION ( 'NONE',  ( 0.0000000000000000000, 0.0000000000000000000, 1.000000000000000000 ) ) ;
#67 = ORIENTED_EDGE ( 'NONE', *, *, #32, .F. ) ;
#68 =( NAMED_UNIT ( * ) PLANE_ANGLE_UNIT ( ) SI_UNIT ( $, .RADIAN. ) );
#69 = EDGE_CURVE ( 'NONE', #84, #36, #144, .T. ) ;
#70 = CARTESIAN_POINT ( 'NONE',  ( 0.0000000000000000000, 0.0000000000000000000, -2.000000000000000000 ) ) ;
#71 = MECHANICAL_DESIGN_GEOMETRIC_PRESENTATION_REPRESENTATION (  '', ( #125 ), #196 ) ;
#72 = ORIENTED_EDGE ( 'NONE', *, *, #186, .T. ) ;
#73 = VECTOR ( 'NONE', #169, 1000.000000000000000 ) ;
#74 = CIRCLE ( 'NONE', #37, 127.0000000000000000 ) ;
#75 = ORIENTED_EDGE ( 'NONE', *, *, #49, .F. ) ;
#76 = DIRECTION ( 'NONE',  ( 1.000000000000000000, 0.0000000000000000000, 0.0000000000000000000 ) ) ;
#77 = ORIENTED_EDGE ( 'NONE', *, *, #186, .F. ) ;
#78 = DIRECTION ( 'NONE',  ( 0.0000000000000000000, 0.0000000000000000000, 1.000000000000000000 ) ) ;
#79 = ORIENTED_EDGE ( 'NONE', *, *, #19, .T. ) ;
#80 = CARTESIAN_POINT ( 'NONE',  ( 0.0000000000000000000, 0.0000000000000000000, -2.000000000000000000 ) ) ;
#81 = CARTESIAN_POINT ( 'NONE',  ( 0.0000000000000000000, 0.0000000000000000000, 0.0000000000000000000 ) ) ;
#82 = ADVANCED_FACE ( 'NONE', ( #177, #201 ), #163, .F. ) ;
#83 = ORIENTED_EDGE ( 'NONE', *, *, #149, .T. ) ;
#84 = VERTEX_POINT ( 'NONE', #187 ) ;
#85 = DIRECTION ( 'NONE',  ( 0.0000000000000000000, 0.0000000000000000000, 1.000000000000000000 ) ) ;
#86 =( NAMED_UNIT ( * ) PLANE_ANGLE_UNIT ( ) SI_UNIT ( $, .RADIAN. ) );
#87 = ORIENTED_EDGE ( 'NONE', *, *, #69, .F. ) ;
#88 = EDGE_LOOP ( 'NONE', ( #34, #9 ) ) ;
#89 = ORIENTED_EDGE ( 'NONE', *, *, #130, .T. ) ;
#90 = ORIENTED_EDGE ( 'NONE', *, *, #120, .T. ) ;
#91 = PRODUCT_DEFINITION_FORMATION_WITH_SPECIFIED_SOURCE ( 'ANY', '', #18, .NOT_KNOWN. ) ;
#92 = FILL_AREA_STYLE_COLOUR ( '', #1 ) ;
#93 = PLANE ( 'NONE',  #197 ) ;
#94 = EDGE_LOOP ( 'NONE', ( #64, #72, #53, #102 ) ) ;
#95 = VERTEX_POINT ( 'NONE', #164 ) ;
#96 = DIRECTION ( 'NONE',  ( 0.0000000000000000000, 0.0000000000000000000, 1.000000000000000000 ) ) ;
#97 = DIRECTION ( 'NONE',  ( 0.0000000000000000000, 0.0000000000000000000, 1.000000000000000000 ) ) ;
#98 = ADVANCED_FACE ( 'NONE', ( #57 ), #157, .F. ) ;
#99 = DIRECTION ( 'NONE',  ( 0.0000000000000000000, 0.0000000000000000000, 1.000000000000000000 ) ) ;
#100 = VERTEX_POINT ( 'NONE', #178 ) ;
#101 = PRODUCT_DEFINITION_CONTEXT ( 'detailed design', #5, 'design' ) ;
#102 = ORIENTED_EDGE ( 'NONE', *, *, #200, .F. ) ;
#103 = PRODUCT_DEFINITION_SHAPE ( 'NONE', 'NONE',  #214 ) ;
#104 =( LENGTH_UNIT ( ) NAMED_UNIT ( * ) SI_UNIT ( .MILLI., .METRE. ) );
#105 = CARTESIAN_POINT ( 'NONE',  ( 0.0000000000000000000, 0.0000000000000000000, 0.0000000000000000000 ) ) ;
#106 = DIRECTION ( 'NONE',  ( 0.0000000000000000000, 0.0000000000000000000, 1.000000000000000000 ) ) ;
#107 = EDGE_LOOP ( 'NONE', ( #89, #90 ) ) ;
#108 = ORIENTED_EDGE ( 'NONE', *, *, #149, .F. ) ;
#109 = DIRECTION ( 'NONE',  ( 1.000000000000000000, 0.0000000000000000000, 0.0000000000000000000 ) ) ;
#110 = ADVANCED_BREP_SHAPE_REPRESENTATION ( '490DFL250-S-S5', ( #35, #138 ), #42 ) ;
#111 = CARTESIAN_POINT ( 'NONE',  ( 0.0000000000000000000, 0.0000000000000000000, -2.000000000000000000 ) ) ;
#112 = SURFACE_STYLE_USAGE ( .BOTH. , #181 ) ;
#113 = CARTESIAN_POINT ( 'NONE',  ( 127.0000000000000000, 0.0000000000000000000, -2.000000000000000000 ) ) ;
#114 = CARTESIAN_POINT ( 'NONE',  ( 0.0000000000000000000, 0.0000000000000000000, -2.000000000000000000 ) ) ;
#115 = AXIS2_PLACEMENT_3D ( 'NONE', #70, #168, #122 ) ;
#116 = VECTOR ( 'NONE', #126, 1000.000000000000000 ) ;
#117 = ORIENTED_EDGE ( 'NONE', *, *, #2, .T. ) ;
#118 = DIRECTION ( 'NONE',  ( 1.000000000000000000, 0.0000000000000000000, 0.0000000000000000000 ) ) ;
#119 = FILL_AREA_STYLE_COLOUR ( '', #16 ) ;
#120 = EDGE_CURVE ( 'NONE', #29, #132, #152, .T. ) ;
#121 = ORIENTED_EDGE ( 'NONE', *, *, #120, .F. ) ;
#122 = DIRECTION ( 'NONE',  ( 1.000000000000000000, 0.0000000000000000000, 0.0000000000000000000 ) ) ;
#123 = ADVANCED_FACE ( 'NONE', ( #154 ), #166, .T. ) ;
#124 = AXIS2_PLACEMENT_3D ( 'NONE', #114, #97, #76 ) ;
#125 = STYLED_ITEM ( 'NONE', ( #208 ), #110 ) ;
#126 = DIRECTION ( 'NONE',  ( 0.0000000000000000000, 0.0000000000000000000, 1.000000000000000000 ) ) ;
#127 = SURFACE_STYLE_FILL_AREA ( #211 ) ;
#128 = PRESENTATION_LAYER_ASSIGNMENT (  '', '', ( #56 ) ) ;
#129 = ORIENTED_EDGE ( 'NONE', *, *, #26, .F. ) ;
#130 = EDGE_CURVE ( 'NONE', #132, #29, #161, .T. ) ;
#131 = DIRECTION ( 'NONE',  ( 0.0000000000000000000, 0.0000000000000000000, 1.000000000000000000 ) ) ;
#132 = VERTEX_POINT ( 'NONE', #51 ) ;
#133 = CARTESIAN_POINT ( 'NONE',  ( -127.0000000000000000, 1.555301434917138600E-014, 0.0000000000000000000 ) ) ;
#134 = CARTESIAN_POINT ( 'NONE',  ( 0.0000000000000000000, 0.0000000000000000000, -2.000000000000000000 ) ) ;
#135 =( LENGTH_UNIT ( ) NAMED_UNIT ( * ) SI_UNIT ( .MILLI., .METRE. ) );
#136 = MECHANICAL_DESIGN_GEOMETRIC_PRESENTATION_REPRESENTATION (  '', ( #56 ), #174 ) ;
#137 = VERTEX_POINT ( 'NONE', #46 ) ;
#138 = AXIS2_PLACEMENT_3D ( 'NONE', #192, #85, #210 ) ;
#139 = DIRECTION ( 'NONE',  ( 0.0000000000000000000, 0.0000000000000000000, 1.000000000000000000 ) ) ;
#140 = PRESENTATION_STYLE_ASSIGNMENT (( #112 ) ) ;
#141 = UNCERTAINTY_MEASURE_WITH_UNIT (LENGTH_MEASURE( 1.000000000000000100E-005 ), #104, 'distance_accuracy_value', 'NONE');
#142 = AXIS2_PLACEMENT_3D ( 'NONE', #80, #99, #59 ) ;
#143 = CARTESIAN_POINT ( 'NONE',  ( 136.4499999999999900, 0.0000000000000000000, -2.000000000000000000 ) ) ;
#144 = CIRCLE ( 'NONE', #142, 127.0000000000000000 ) ;
#145 = DIRECTION ( 'NONE',  ( 0.0000000000000000000, 0.0000000000000000000, 1.000000000000000000 ) ) ;
#146 = DIRECTION ( 'NONE',  ( 1.000000000000000000, 0.0000000000000000000, 0.0000000000000000000 ) ) ;
#147 = FILL_AREA_STYLE ('',( #92 ) ) ;
#148 = CYLINDRICAL_SURFACE ( 'NONE', #115, 136.4499999999999900 ) ;
#149 = EDGE_CURVE ( 'NONE', #95, #12, #165, .T. ) ;
#150 = DIRECTION ( 'NONE',  ( 1.000000000000000000, 0.0000000000000000000, 0.0000000000000000000 ) ) ;
#151 = EDGE_LOOP ( 'NONE', ( #108, #75 ) ) ;
#152 = CIRCLE ( 'NONE', #212, 136.4499999999999900 ) ;
#153 = DIRECTION ( 'NONE',  ( 1.000000000000000000, 0.0000000000000000000, 0.0000000000000000000 ) ) ;
#154 = FACE_OUTER_BOUND ( 'NONE', #39, .T. ) ;
#155 = AXIS2_PLACEMENT_3D ( 'NONE', #111, #66, #48 ) ;
#156 = FACE_BOUND ( 'NONE', #151, .T. ) ;
#157 = CYLINDRICAL_SURFACE ( 'NONE', #167, 127.0000000000000000 ) ;
#158 = AXIS2_PLACEMENT_3D ( 'NONE', #134, #199, #153 ) ;
#159 = FACE_OUTER_BOUND ( 'NONE', #94, .T. ) ;
#160 = CARTESIAN_POINT ( 'NONE',  ( -136.4499999999999900, 1.671030557436563400E-014, 0.0000000000000000000 ) ) ;
#161 = CIRCLE ( 'NONE', #14, 136.4499999999999900 ) ;
#162 = CIRCLE ( 'NONE', #158, 136.4499999999999900 ) ;
#163 = PLANE ( 'NONE',  #155 ) ;
#164 = CARTESIAN_POINT ( 'NONE',  ( 127.0000000000000000, 0.0000000000000000000, 0.0000000000000000000 ) ) ;
#165 = CIRCLE ( 'NONE', #4, 127.0000000000000000 ) ;
#166 = CYLINDRICAL_SURFACE ( 'NONE', #30, 136.4499999999999900 ) ;
#167 = AXIS2_PLACEMENT_3D ( 'NONE', #205, #131, #150 ) ;
#168 = DIRECTION ( 'NONE',  ( 0.0000000000000000000, 0.0000000000000000000, 1.000000000000000000 ) ) ;
#169 = DIRECTION ( 'NONE',  ( 0.0000000000000000000, 0.0000000000000000000, 1.000000000000000000 ) ) ;
#170 = LINE ( 'NONE', #143, #73 ) ;
#171 = FACE_OUTER_BOUND ( 'NONE', #107, .T. ) ;
#172 = CARTESIAN_POINT ( 'NONE',  ( -136.4499999999999900, 1.671030557436563400E-014, -2.000000000000000000 ) ) ;
#173 = DIRECTION ( 'NONE',  ( 0.0000000000000000000, 0.0000000000000000000, 1.000000000000000000 ) ) ;
#174 =( GEOMETRIC_REPRESENTATION_CONTEXT ( 3 ) GLOBAL_UNCERTAINTY_ASSIGNED_CONTEXT ( ( #55 ) ) GLOBAL_UNIT_ASSIGNED_CONTEXT ( ( #135, #182, #206 ) ) REPRESENTATION_CONTEXT ( 'NONE', 'WORKASPACE' ) );
#175 = LINE ( 'NONE', #172, #28 ) ;
#176 = SHAPE_DEFINITION_REPRESENTATION ( #103, #110 ) ;
#177 = FACE_BOUND ( 'NONE', #88, .T. ) ;
#178 = CARTESIAN_POINT ( 'NONE',  ( -136.4499999999999900, 1.671030557436563400E-014, -2.000000000000000000 ) ) ;
#179 = CYLINDRICAL_SURFACE ( 'NONE', #184, 127.0000000000000000 ) ;
#180 = DIRECTION ( 'NONE',  ( 1.000000000000000000, 0.0000000000000000000, -0.0000000000000000000 ) ) ;
#181 = SURFACE_SIDE_STYLE ('',( #194 ) ) ;
#182 =( NAMED_UNIT ( * ) PLANE_ANGLE_UNIT ( ) SI_UNIT ( $, .RADIAN. ) );
#183 = DIRECTION ( 'NONE',  ( 0.0000000000000000000, 0.0000000000000000000, 1.000000000000000000 ) ) ;
#184 = AXIS2_PLACEMENT_3D ( 'NONE', #23, #96, #15 ) ;
#185 = ADVANCED_FACE ( 'NONE', ( #156, #171 ), #93, .T. ) ;
#186 = EDGE_CURVE ( 'NONE', #100, #29, #175, .T. ) ;
#187 = CARTESIAN_POINT ( 'NONE',  ( -127.0000000000000000, 1.555301434917138600E-014, -2.000000000000000000 ) ) ;
#188 = DIRECTION ( 'NONE',  ( 0.0000000000000000000, 0.0000000000000000000, 1.000000000000000000 ) ) ;
#189 = VECTOR ( 'NONE', #45, 1000.000000000000000 ) ;
#190 = LINE ( 'NONE', #17, #116 ) ;
#191 = DIRECTION ( 'NONE',  ( 1.000000000000000000, 0.0000000000000000000, 0.0000000000000000000 ) ) ;
#192 = CARTESIAN_POINT ( 'NONE',  ( 0.0000000000000000000, 0.0000000000000000000, 0.0000000000000000000 ) ) ;
#193 = PRODUCT_CONTEXT ( 'NONE', #8, 'mechanical' ) ;
#194 = SURFACE_STYLE_FILL_AREA ( #147 ) ;
#195 = CIRCLE ( 'NONE', #6, 127.0000000000000000 ) ;
#196 =( GEOMETRIC_REPRESENTATION_CONTEXT ( 3 ) GLOBAL_UNCERTAINTY_ASSIGNED_CONTEXT ( ( #33 ) ) GLOBAL_UNIT_ASSIGNED_CONTEXT ( ( #25, #68, #7 ) ) REPRESENTATION_CONTEXT ( 'NONE', 'WORKASPACE' ) );
#197 = AXIS2_PLACEMENT_3D ( 'NONE', #105, #183, #180 ) ;
#198 = DIRECTION ( 'NONE',  ( 1.000000000000000000, 0.0000000000000000000, 0.0000000000000000000 ) ) ;
#199 = DIRECTION ( 'NONE',  ( 0.0000000000000000000, 0.0000000000000000000, 1.000000000000000000 ) ) ;
#200 = EDGE_CURVE ( 'NONE', #137, #132, #170, .T. ) ;
#201 = FACE_OUTER_BOUND ( 'NONE', #44, .T. ) ;
#202 = ORIENTED_EDGE ( 'NONE', *, *, #19, .F. ) ;
#203 = CARTESIAN_POINT ( 'NONE',  ( 0.0000000000000000000, 0.0000000000000000000, 0.0000000000000000000 ) ) ;
#204 = PRODUCT_RELATED_PRODUCT_CATEGORY ( 'part', '', ( #18 ) ) ;
#205 = CARTESIAN_POINT ( 'NONE',  ( 0.0000000000000000000, 0.0000000000000000000, -2.000000000000000000 ) ) ;
#206 =( NAMED_UNIT ( * ) SI_UNIT ( $, .STERADIAN. ) SOLID_ANGLE_UNIT ( ) );
#207 = DIRECTION ( 'NONE',  ( 1.000000000000000000, 0.0000000000000000000, 0.0000000000000000000 ) ) ;
#208 = PRESENTATION_STYLE_ASSIGNMENT (( #50 ) ) ;
#209 = ADVANCED_FACE ( 'NONE', ( #159 ), #148, .T. ) ;
#210 = DIRECTION ( 'NONE',  ( 1.000000000000000000, 0.0000000000000000000, 0.0000000000000000000 ) ) ;
#211 = FILL_AREA_STYLE ('',( #119 ) ) ;
#212 = AXIS2_PLACEMENT_3D ( 'NONE', #81, #145, #198 ) ;
#213 = EDGE_LOOP ( 'NONE', ( #202, #31, #54, #83 ) ) ;
#214 = PRODUCT_DEFINITION ( 'UNKNOWN', '', #91, #101 ) ;
ENDSEC;
END-ISO-10303-21;
