ISO-10303-21;
/* Copyright TRINOS Vakuum-Systeme GmbH */
HEADER;
FILE_DESCRIPTION (( 'STEP AP214' ),
    '1' );
FILE_NAME ('306 DOR 630-S1.step',
    '2012-07-05T19:55:33',
    ( '' ),
    ( '' ),
    'SwSTEP 2.0',
    'SolidWorks 2010',
    '' );
FILE_SCHEMA (( 'AUTOMOTIVE_DESIGN' ));
ENDSEC;

DATA;
#1 = FACE_OUTER_BOUND ( 'NONE', #67, .T. ) ;
#2 = CLOSED_SHELL ( 'NONE', ( #140, #141, #142, #143 ) ) ;
#3 = EDGE_LOOP ( 'NONE', ( #97, #105, #82, #65 ) ) ;
#4 = UNCERTAINTY_MEASURE_WITH_UNIT (LENGTH_MEASURE( 1.000000000000000100E-005 ), #56, 'distance_accuracy_value', 'NONE');
#5 = ADVANCED_BREP_SHAPE_REPRESENTATION ( '306 DOR 630-S1', ( #7, #133 ), #92 ) ;
#6 = UNCERTAINTY_MEASURE_WITH_UNIT (LENGTH_MEASURE( 1.000000000000000100E-005 ), #32, 'distance_accuracy_value', 'NONE');
#7 = MANIFOLD_SOLID_BREP ( 'Rotation1', #2 ) ;
#8 = VERTEX_POINT ( 'NONE', #18 ) ;
#9 = DIRECTION ( 'NONE',  ( 0.0000000000000000000, 0.0000000000000000000, 1.000000000000000000 ) ) ;
#10 = CARTESIAN_POINT ( 'NONE',  ( 0.0000000000000000000, 4.096382310807939300E-014, -334.4950000000000600 ) ) ;
#11 = CARTESIAN_POINT ( 'NONE',  ( 0.0000000000000000000, 0.0000000000000000000, 337.9900000000000100 ) ) ;
#12 = DIRECTION ( 'NONE',  ( -1.000000000000000000, -0.0000000000000000000, -0.0000000000000000000 ) ) ;
#13 = DIRECTION ( 'NONE',  ( 0.0000000000000000000, 0.0000000000000000000, 1.000000000000000000 ) ) ;
#14 = CARTESIAN_POINT ( 'NONE',  ( 0.0000000000000000000, 0.0000000000000000000, 334.4950000000000600 ) ) ;
#15 = CARTESIAN_POINT ( 'NONE',  ( 0.0000000000000000000, 4.139183716438138900E-014, -337.9900000000000100 ) ) ;
#16 = CARTESIAN_POINT ( 'NONE',  ( 4.280140563019996800E-016, 0.0000000000000000000, 0.0000000000000000000 ) ) ;
#17 = VERTEX_POINT ( 'NONE', #11 ) ;
#18 = CARTESIAN_POINT ( 'NONE',  ( 0.0000000000000000000, 0.0000000000000000000, 331.0000000000000600 ) ) ;
#19 = CARTESIAN_POINT ( 'NONE',  ( 0.0000000000000000000, 4.053580905177739100E-014, -331.0000000000000600 ) ) ;
#20 =( NAMED_UNIT ( * ) PLANE_ANGLE_UNIT ( ) SI_UNIT ( $, .RADIAN. ) );
#21 =( NAMED_UNIT ( * ) SI_UNIT ( $, .STERADIAN. ) SOLID_ANGLE_UNIT ( ) );
#22 = FILL_AREA_STYLE ('',( #23 ) ) ;
#23 = FILL_AREA_STYLE_COLOUR ( '', #106 ) ;
#24 = SURFACE_STYLE_USAGE ( .BOTH. , #25 ) ;
#25 = SURFACE_SIDE_STYLE ('',( #77 ) ) ;
#26 = CARTESIAN_POINT ( 'NONE',  ( 0.0000000000000000000, 0.0000000000000000000, 334.4950000000000600 ) ) ;
#27 = CARTESIAN_POINT ( 'NONE',  ( 4.280140563019996800E-016, 0.0000000000000000000, 0.0000000000000000000 ) ) ;
#28 = DIRECTION ( 'NONE',  ( -1.000000000000000000, -0.0000000000000000000, -0.0000000000000000000 ) ) ;
#29 = DIRECTION ( 'NONE',  ( 0.0000000000000000000, 0.0000000000000000000, -1.000000000000000000 ) ) ;
#30 = DIRECTION ( 'NONE',  ( 0.0000000000000000000, -1.000000000000000000, 0.0000000000000000000 ) ) ;
#31 = VERTEX_POINT ( 'NONE', #15 ) ;
#32 =( LENGTH_UNIT ( ) NAMED_UNIT ( * ) SI_UNIT ( .MILLI., .METRE. ) );
#33 = VERTEX_POINT ( 'NONE', #19 ) ;
#34 = DIRECTION ( 'NONE',  ( 0.0000000000000000000, 0.0000000000000000000, -1.000000000000000000 ) ) ;
#35 = DIRECTION ( 'NONE',  ( 0.0000000000000000000, -1.000000000000000000, 0.0000000000000000000 ) ) ;
#36 = CARTESIAN_POINT ( 'NONE',  ( 0.0000000000000000000, 0.0000000000000000000, 0.0000000000000000000 ) ) ;
#37 = DIRECTION ( 'NONE',  ( -0.0000000000000000000, 1.000000000000000000, 1.224646799147353200E-016 ) ) ;
#38 = DIRECTION ( 'NONE',  ( 0.0000000000000000000, -1.224646799147368500E-016, 1.000000000000000000 ) ) ;
#39 = CARTESIAN_POINT ( 'NONE',  ( 0.0000000000000000000, 0.0000000000000000000, 0.0000000000000000000 ) ) ;
#40 = CARTESIAN_POINT ( 'NONE',  ( 0.0000000000000000000, 4.096382310807939300E-014, -334.4950000000000600 ) ) ;
#41 = DIRECTION ( 'NONE',  ( -1.000000000000000000, -0.0000000000000000000, -0.0000000000000000000 ) ) ;
#42 = DIRECTION ( 'NONE',  ( 0.0000000000000000000, 0.0000000000000000000, 1.000000000000000000 ) ) ;
#43 = DIRECTION ( 'NONE',  ( -1.000000000000000000, -0.0000000000000000000, -0.0000000000000000000 ) ) ;
#44 = DIRECTION ( 'NONE',  ( -1.000000000000000000, -0.0000000000000000000, -0.0000000000000000000 ) ) ;
#45 = DIRECTION ( 'NONE',  ( 0.0000000000000000000, 0.0000000000000000000, 1.000000000000000000 ) ) ;
#46 = DIRECTION ( 'NONE',  ( -1.000000000000000000, -0.0000000000000000000, -0.0000000000000000000 ) ) ;
#47 = DIRECTION ( 'NONE',  ( -1.000000000000000000, -0.0000000000000000000, -0.0000000000000000000 ) ) ;
#48 = DIRECTION ( 'NONE',  ( -0.0000000000000000000, 1.000000000000000000, 1.224646799147353200E-016 ) ) ;
#49 = DIRECTION ( 'NONE',  ( 0.0000000000000000000, -1.224646799147368500E-016, 1.000000000000000000 ) ) ;
#50 = CARTESIAN_POINT ( 'NONE',  ( 0.0000000000000000000, 0.0000000000000000000, 0.0000000000000000000 ) ) ;
#51 = DIRECTION ( 'NONE',  ( -1.000000000000000000, -0.0000000000000000000, -0.0000000000000000000 ) ) ;
#52 = DIRECTION ( 'NONE',  ( 0.0000000000000000000, 0.0000000000000000000, 1.000000000000000000 ) ) ;
#53 = CARTESIAN_POINT ( 'NONE',  ( 0.0000000000000000000, 0.0000000000000000000, 0.0000000000000000000 ) ) ;
#54 = DIRECTION ( 'NONE',  ( 0.0000000000000000000, 0.0000000000000000000, 1.000000000000000000 ) ) ;
#55 = CARTESIAN_POINT ( 'NONE',  ( 0.0000000000000000000, 0.0000000000000000000, 0.0000000000000000000 ) ) ;
#56 =( LENGTH_UNIT ( ) NAMED_UNIT ( * ) SI_UNIT ( .MILLI., .METRE. ) );
#57 = DIRECTION ( 'NONE',  ( 0.0000000000000000000, 0.0000000000000000000, 1.000000000000000000 ) ) ;
#58 = CARTESIAN_POINT ( 'NONE',  ( 0.0000000000000000000, 0.0000000000000000000, 0.0000000000000000000 ) ) ;
#59 = DIRECTION ( 'NONE',  ( 0.0000000000000000000, 0.0000000000000000000, 1.000000000000000000 ) ) ;
#60 =( NAMED_UNIT ( * ) PLANE_ANGLE_UNIT ( ) SI_UNIT ( $, .RADIAN. ) );
#61 =( NAMED_UNIT ( * ) SI_UNIT ( $, .STERADIAN. ) SOLID_ANGLE_UNIT ( ) );
#62 = UNCERTAINTY_MEASURE_WITH_UNIT (LENGTH_MEASURE( 1.000000000000000100E-005 ), #154, 'distance_accuracy_value', 'NONE');
#63 = EDGE_LOOP ( 'NONE', ( #104, #72, #73, #84 ) ) ;
#64 = ORIENTED_EDGE ( 'NONE', *, *, #112, .T. ) ;
#65 = ORIENTED_EDGE ( 'NONE', *, *, #115, .T. ) ;
#66 = ORIENTED_EDGE ( 'NONE', *, *, #118, .T. ) ;
#67 = EDGE_LOOP ( 'NONE', ( #74, #103, #64, #98 ) ) ;
#68 = PRESENTATION_STYLE_ASSIGNMENT (( #24 ) ) ;
#69 = CIRCLE ( 'NONE', #109, 3.494999999999970400 ) ;
#70 = CIRCLE ( 'NONE', #113, 331.0000000000000600 ) ;
#71 = TOROIDAL_SURFACE ( 'NONE', #129, 334.4950000000000600, 3.494999999999997900 ) ;
#72 = ORIENTED_EDGE ( 'NONE', *, *, #115, .F. ) ;
#73 = ORIENTED_EDGE ( 'NONE', *, *, #114, .T. ) ;
#74 = ORIENTED_EDGE ( 'NONE', *, *, #116, .F. ) ;
#75 = FACE_OUTER_BOUND ( 'NONE', #3, .T. ) ;
#76 = SURFACE_STYLE_FILL_AREA ( #157 ) ;
#77 = SURFACE_STYLE_FILL_AREA ( #22 ) ;
#78 = PRESENTATION_STYLE_ASSIGNMENT (( #155 ) ) ;
#79 = CIRCLE ( 'NONE', #126, 3.494999999999970400 ) ;
#80 = FACE_OUTER_BOUND ( 'NONE', #63, .T. ) ;
#81 = CIRCLE ( 'NONE', #123, 337.9900000000000100 ) ;
#82 = ORIENTED_EDGE ( 'NONE', *, *, #111, .T. ) ;
#83 = ORIENTED_EDGE ( 'NONE', *, *, #116, .T. ) ;
#84 = ORIENTED_EDGE ( 'NONE', *, *, #119, .T. ) ;
#85 = ORIENTED_EDGE ( 'NONE', *, *, #112, .F. ) ;
#86 = STYLED_ITEM ( 'NONE', ( #68 ), #7 ) ;
#87 = CIRCLE ( 'NONE', #110, 3.494999999999970400 ) ;
#88 = TOROIDAL_SURFACE ( 'NONE', #127, 334.4950000000000600, 3.494999999999997900 ) ;
#89 = CIRCLE ( 'NONE', #125, 337.9900000000000100 ) ;
#90 = TOROIDAL_SURFACE ( 'NONE', #128, 334.4950000000000600, 3.494999999999997900 ) ;
#91 = TOROIDAL_SURFACE ( 'NONE', #130, 334.4950000000000600, 3.494999999999997900 ) ;
#92 =( GEOMETRIC_REPRESENTATION_CONTEXT ( 3 ) GLOBAL_UNCERTAINTY_ASSIGNED_CONTEXT ( ( #4 ) ) GLOBAL_UNIT_ASSIGNED_CONTEXT ( ( #56, #60, #61 ) ) REPRESENTATION_CONTEXT ( 'NONE', 'WORKASPACE' ) );
#93 = STYLED_ITEM ( 'NONE', ( #78 ), #5 ) ;
#94 =( GEOMETRIC_REPRESENTATION_CONTEXT ( 3 ) GLOBAL_UNCERTAINTY_ASSIGNED_CONTEXT ( ( #62 ) ) GLOBAL_UNIT_ASSIGNED_CONTEXT ( ( #154, #153, #152 ) ) REPRESENTATION_CONTEXT ( 'NONE', 'WORKASPACE' ) );
#95 = EDGE_LOOP ( 'NONE', ( #85, #66, #83, #96 ) ) ;
#96 = ORIENTED_EDGE ( 'NONE', *, *, #114, .F. ) ;
#97 = ORIENTED_EDGE ( 'NONE', *, *, #117, .F. ) ;
#98 = ORIENTED_EDGE ( 'NONE', *, *, #111, .F. ) ;
#99 = CIRCLE ( 'NONE', #124, 3.494999999999970400 ) ;
#100 = FACE_OUTER_BOUND ( 'NONE', #95, .T. ) ;
#101 = COLOUR_RGB ( '',0.2509803921568627400, 0.2509803921568627400, 0.2509803921568627400 ) ;
#102 = SHAPE_DEFINITION_REPRESENTATION ( #139, #5 ) ;
#103 = ORIENTED_EDGE ( 'NONE', *, *, #117, .T. ) ;
#104 = ORIENTED_EDGE ( 'NONE', *, *, #118, .F. ) ;
#105 = ORIENTED_EDGE ( 'NONE', *, *, #119, .F. ) ;
#106 = COLOUR_RGB ( '',0.2509803921568627400, 0.2509803921568627400, 0.2509803921568627400 ) ;
#107 =( GEOMETRIC_REPRESENTATION_CONTEXT ( 3 ) GLOBAL_UNCERTAINTY_ASSIGNED_CONTEXT ( ( #6 ) ) GLOBAL_UNIT_ASSIGNED_CONTEXT ( ( #32, #20, #21 ) ) REPRESENTATION_CONTEXT ( 'NONE', 'WORKASPACE' ) );
#108 = CIRCLE ( 'NONE', #122, 331.0000000000000600 ) ;
#109 = AXIS2_PLACEMENT_3D ( 'NONE', #14, #35, #34 ) ;
#110 = AXIS2_PLACEMENT_3D ( 'NONE', #26, #30, #29 ) ;
#111 = EDGE_CURVE ( 'NONE', #33, #8, #70, .T. ) ;
#112 = EDGE_CURVE ( 'NONE', #17, #8, #87, .T. ) ;
#113 = AXIS2_PLACEMENT_3D ( 'NONE', #16, #28, #9 ) ;
#114 = EDGE_CURVE ( 'NONE', #8, #33, #108, .T. ) ;
#115 = EDGE_CURVE ( 'NONE', #8, #17, #69, .T. ) ;
#116 = EDGE_CURVE ( 'NONE', #31, #33, #99, .T. ) ;
#117 = EDGE_CURVE ( 'NONE', #31, #17, #81, .T. ) ;
#118 = EDGE_CURVE ( 'NONE', #17, #31, #89, .T. ) ;
#119 = EDGE_CURVE ( 'NONE', #33, #31, #79, .T. ) ;
#120 = PRESENTATION_LAYER_ASSIGNMENT (  '', '', ( #86 ) ) ;
#121 = MECHANICAL_DESIGN_GEOMETRIC_PRESENTATION_REPRESENTATION (  '', ( #86 ), #107 ) ;
#122 = AXIS2_PLACEMENT_3D ( 'NONE', #27, #12, #13 ) ;
#123 = AXIS2_PLACEMENT_3D ( 'NONE', #39, #41, #42 ) ;
#124 = AXIS2_PLACEMENT_3D ( 'NONE', #10, #37, #38 ) ;
#125 = AXIS2_PLACEMENT_3D ( 'NONE', #36, #44, #45 ) ;
#126 = AXIS2_PLACEMENT_3D ( 'NONE', #40, #48, #49 ) ;
#127 = AXIS2_PLACEMENT_3D ( 'NONE', #50, #47, #52 ) ;
#128 = AXIS2_PLACEMENT_3D ( 'NONE', #53, #46, #54 ) ;
#129 = AXIS2_PLACEMENT_3D ( 'NONE', #55, #51, #57 ) ;
#130 = AXIS2_PLACEMENT_3D ( 'NONE', #58, #43, #59 ) ;
#131 = PRESENTATION_LAYER_ASSIGNMENT (  '', '', ( #93 ) ) ;
#132 = MECHANICAL_DESIGN_GEOMETRIC_PRESENTATION_REPRESENTATION (  '', ( #93 ), #94 ) ;
#133 = AXIS2_PLACEMENT_3D ( 'NONE', #151, #150, #149 ) ;
#134 = PRODUCT_DEFINITION ( 'UNKNOWN', '', #135, #138 ) ;
#135 = PRODUCT_DEFINITION_FORMATION_WITH_SPECIFIED_SOURCE ( 'ANY', '', #137, .NOT_KNOWN. ) ;
#136 = PRODUCT_RELATED_PRODUCT_CATEGORY ( 'part', '', ( #137 ) ) ;
#137 = PRODUCT ( '306 DOR 630-S1', '306 DOR 630-S1', '', ( #146 ) ) ;
#138 = PRODUCT_DEFINITION_CONTEXT ( 'detailed design', #145, 'design' ) ;
#139 = PRODUCT_DEFINITION_SHAPE ( 'NONE', 'NONE',  #134 ) ;
#140 = ADVANCED_FACE ( 'NONE', ( #1 ), #88, .T. ) ;
#141 = ADVANCED_FACE ( 'NONE', ( #100 ), #90, .T. ) ;
#142 = ADVANCED_FACE ( 'NONE', ( #80 ), #71, .T. ) ;
#143 = ADVANCED_FACE ( 'NONE', ( #75 ), #91, .T. ) ;
#144 = APPLICATION_PROTOCOL_DEFINITION ( 'draft international standard', 'automotive_design', 1998, #145 ) ;
#145 = APPLICATION_CONTEXT ( 'automotive_design' ) ;
#146 = PRODUCT_CONTEXT ( 'NONE', #148, 'mechanical' ) ;
#147 = APPLICATION_PROTOCOL_DEFINITION ( 'draft international standard', 'automotive_design', 1998, #148 ) ;
#148 = APPLICATION_CONTEXT ( 'automotive_design' ) ;
#149 = DIRECTION ( 'NONE',  ( 1.000000000000000000, 0.0000000000000000000, 0.0000000000000000000 ) ) ;
#150 = DIRECTION ( 'NONE',  ( 0.0000000000000000000, 0.0000000000000000000, 1.000000000000000000 ) ) ;
#151 = CARTESIAN_POINT ( 'NONE',  ( 0.0000000000000000000, 0.0000000000000000000, 0.0000000000000000000 ) ) ;
#152 =( NAMED_UNIT ( * ) SI_UNIT ( $, .STERADIAN. ) SOLID_ANGLE_UNIT ( ) );
#153 =( NAMED_UNIT ( * ) PLANE_ANGLE_UNIT ( ) SI_UNIT ( $, .RADIAN. ) );
#154 =( LENGTH_UNIT ( ) NAMED_UNIT ( * ) SI_UNIT ( .MILLI., .METRE. ) );
#155 = SURFACE_STYLE_USAGE ( .BOTH. , #156 ) ;
#156 = SURFACE_SIDE_STYLE ('',( #76 ) ) ;
#157 = FILL_AREA_STYLE ('',( #158 ) ) ;
#158 = FILL_AREA_STYLE_COLOUR ( '', #101 ) ;
ENDSEC;
END-ISO-10303-21;
