ISO-10303-21;
HEADER;
FILE_DESCRIPTION (( 'STEP AP214' ),
    '1' );
FILE_NAME ('301DOR200-S1.step',
    '2017-07-07T05:04:26',
    ( 'install' ),
    ( '' ),
    'SwSTEP 2.0',
    'SolidWorks 2015',
    '' );
FILE_SCHEMA (( 'AUTOMOTIVE_DESIGN' ));
ENDSEC;

DATA;
#1 = PRODUCT_DEFINITION_FORMATION_WITH_SPECIFIED_SOURCE ( 'ANY', '', #52, .NOT_KNOWN. ) ;
#2 = PRODUCT_DEFINITION ( 'UNKNOWN', '', #1, #135 ) ;
#3 = AXIS2_PLACEMENT_3D ( 'NONE', #108, #153, #131 ) ;
#4 = EDGE_CURVE ( 'NONE', #102, #66, #144, .T. ) ;
#5 =( GEOMETRIC_REPRESENTATION_CONTEXT ( 3 ) GLOBAL_UNCERTAINTY_ASSIGNED_CONTEXT ( ( #89 ) ) GLOBAL_UNIT_ASSIGNED_CONTEXT ( ( #59, #19, #34 ) ) REPRESENTATION_CONTEXT ( 'NONE', 'WORKASPACE' ) );
#6 = APPLICATION_CONTEXT ( 'automotive_design' ) ;
#7 =( LENGTH_UNIT ( ) NAMED_UNIT ( * ) SI_UNIT ( .MILLI., .METRE. ) );
#8 = DIRECTION ( 'NONE',  ( -1.000000000000000000, 0.0000000000000000000, 0.0000000000000000000 ) ) ;
#9 =( NAMED_UNIT ( * ) SI_UNIT ( $, .STERADIAN. ) SOLID_ANGLE_UNIT ( ) );
#10 = MECHANICAL_DESIGN_GEOMETRIC_PRESENTATION_REPRESENTATION (  '', ( #14 ), #5 ) ;
#11 = PRESENTATION_LAYER_ASSIGNMENT (  '', '', ( #14 ) ) ;
#12 = CLOSED_SHELL ( 'NONE', ( #22, #122, #36, #73 ) ) ;
#13 = APPLICATION_CONTEXT ( 'automotive_design' ) ;
#14 = STYLED_ITEM ( 'NONE', ( #42 ), #84 ) ;
#15 = EDGE_CURVE ( 'NONE', #114, #102, #115, .T. ) ;
#16 = TOROIDAL_SURFACE ( 'NONE', #41, 107.1649999999999900, 2.664999999999997800 ) ;
#17 = DIRECTION ( 'NONE',  ( -1.224646799147353200E-016, 1.000000000000000000, 0.0000000000000000000 ) ) ;
#18 =( GEOMETRIC_REPRESENTATION_CONTEXT ( 3 ) GLOBAL_UNCERTAINTY_ASSIGNED_CONTEXT ( ( #56 ) ) GLOBAL_UNIT_ASSIGNED_CONTEXT ( ( #7, #149, #117 ) ) REPRESENTATION_CONTEXT ( 'NONE', 'WORKASPACE' ) );
#19 =( NAMED_UNIT ( * ) PLANE_ANGLE_UNIT ( ) SI_UNIT ( $, .RADIAN. ) );
#20 = DIRECTION ( 'NONE',  ( -0.0000000000000000000, -0.0000000000000000000, -1.000000000000000000 ) ) ;
#21 =( GEOMETRIC_REPRESENTATION_CONTEXT ( 3 ) GLOBAL_UNCERTAINTY_ASSIGNED_CONTEXT ( ( #70 ) ) GLOBAL_UNIT_ASSIGNED_CONTEXT ( ( #99, #63, #9 ) ) REPRESENTATION_CONTEXT ( 'NONE', 'WORKASPACE' ) );
#22 = ADVANCED_FACE ( 'NONE', ( #125 ), #110, .T. ) ;
#23 = EDGE_LOOP ( 'NONE', ( #130, #43, #151, #109 ) ) ;
#24 = DIRECTION ( 'NONE',  ( -1.000000000000000000, 0.0000000000000000000, 0.0000000000000000000 ) ) ;
#25 = DIRECTION ( 'NONE',  ( -1.000000000000000000, -1.224646799147351500E-016, 0.0000000000000000000 ) ) ;
#26 = DIRECTION ( 'NONE',  ( -1.000000000000000000, -1.224646799147351500E-016, 0.0000000000000000000 ) ) ;
#27 = MECHANICAL_DESIGN_GEOMETRIC_PRESENTATION_REPRESENTATION (  '', ( #33 ), #21 ) ;
#28 = ORIENTED_EDGE ( 'NONE', *, *, #69, .T. ) ;
#29 = ORIENTED_EDGE ( 'NONE', *, *, #69, .F. ) ;
#30 = PRODUCT_DEFINITION_SHAPE ( 'NONE', 'NONE',  #2 ) ;
#31 = PRESENTATION_LAYER_ASSIGNMENT (  '', '', ( #33 ) ) ;
#32 = CARTESIAN_POINT ( 'NONE',  ( 0.0000000000000000000, 0.0000000000000000000, 0.0000000000000000000 ) ) ;
#33 = STYLED_ITEM ( 'NONE', ( #54 ), #158 ) ;
#34 =( NAMED_UNIT ( * ) SI_UNIT ( $, .STERADIAN. ) SOLID_ANGLE_UNIT ( ) );
#35 = CARTESIAN_POINT ( 'NONE',  ( 0.0000000000000000000, 0.0000000000000000000, 3.263683719727693100E-016 ) ) ;
#36 = ADVANCED_FACE ( 'NONE', ( #118 ), #104, .T. ) ;
#37 = DIRECTION ( 'NONE',  ( -0.0000000000000000000, -0.0000000000000000000, -1.000000000000000000 ) ) ;
#38 = CARTESIAN_POINT ( 'NONE',  ( 0.0000000000000000000, 0.0000000000000000000, 0.0000000000000000000 ) ) ;
#39 = CARTESIAN_POINT ( 'NONE',  ( 109.8300000000000000, 1.345029579503537900E-014, 0.0000000000000000000 ) ) ;
#40 = CIRCLE ( 'NONE', #44, 109.8300000000000000 ) ;
#41 = AXIS2_PLACEMENT_3D ( 'NONE', #38, #154, #65 ) ;
#42 = PRESENTATION_STYLE_ASSIGNMENT (( #123 ) ) ;
#43 = ORIENTED_EDGE ( 'NONE', *, *, #79, .F. ) ;
#44 = AXIS2_PLACEMENT_3D ( 'NONE', #75, #157, #93 ) ;
#45 = SURFACE_STYLE_FILL_AREA ( #64 ) ;
#46 = CARTESIAN_POINT ( 'NONE',  ( -109.8300000000000000, 0.0000000000000000000, 0.0000000000000000000 ) ) ;
#47 = COLOUR_RGB ( '',0.6980392156862744700, 0.6980392156862744700, 0.6980392156862744700 ) ;
#48 = AXIS2_PLACEMENT_3D ( 'NONE', #53, #17, #26 ) ;
#49 = DIRECTION ( 'NONE',  ( 0.0000000000000000000, 0.0000000000000000000, -1.000000000000000000 ) ) ;
#50 = AXIS2_PLACEMENT_3D ( 'NONE', #35, #155, #24 ) ;
#51 = AXIS2_PLACEMENT_3D ( 'NONE', #60, #37, #95 ) ;
#52 = PRODUCT ( '301DOR200-S1', '301DOR200-S1', '', ( #92 ) ) ;
#53 = CARTESIAN_POINT ( 'NONE',  ( 107.1649999999999900, 1.312392742306261000E-014, 0.0000000000000000000 ) ) ;
#54 = PRESENTATION_STYLE_ASSIGNMENT (( #129 ) ) ;
#55 = CARTESIAN_POINT ( 'NONE',  ( -104.5000000000000000, 0.0000000000000000000, 3.263683719727689200E-016 ) ) ;
#56 = UNCERTAINTY_MEASURE_WITH_UNIT (LENGTH_MEASURE( 1.000000000000000100E-005 ), #7, 'distance_accuracy_value', 'NONE');
#57 = EDGE_CURVE ( 'NONE', #66, #91, #101, .T. ) ;
#58 = COLOUR_RGB ( '',0.6980392156862744700, 0.6980392156862744700, 0.6980392156862744700 ) ;
#59 =( LENGTH_UNIT ( ) NAMED_UNIT ( * ) SI_UNIT ( .MILLI., .METRE. ) );
#60 = CARTESIAN_POINT ( 'NONE',  ( 0.0000000000000000000, 0.0000000000000000000, 0.0000000000000000000 ) ) ;
#61 = CIRCLE ( 'NONE', #50, 104.5000000000000000 ) ;
#62 = FACE_OUTER_BOUND ( 'NONE', #136, .T. ) ;
#63 =( NAMED_UNIT ( * ) PLANE_ANGLE_UNIT ( ) SI_UNIT ( $, .RADIAN. ) );
#64 = FILL_AREA_STYLE ('',( #121 ) ) ;
#65 = DIRECTION ( 'NONE',  ( -1.000000000000000000, 0.0000000000000000000, 0.0000000000000000000 ) ) ;
#66 = VERTEX_POINT ( 'NONE', #55 ) ;
#67 = ORIENTED_EDGE ( 'NONE', *, *, #15, .F. ) ;
#68 = ORIENTED_EDGE ( 'NONE', *, *, #57, .F. ) ;
#69 = EDGE_CURVE ( 'NONE', #114, #91, #86, .T. ) ;
#70 = UNCERTAINTY_MEASURE_WITH_UNIT (LENGTH_MEASURE( 1.000000000000000100E-005 ), #99, 'distance_accuracy_value', 'NONE');
#71 = AXIS2_PLACEMENT_3D ( 'NONE', #78, #143, #49 ) ;
#72 = ORIENTED_EDGE ( 'NONE', *, *, #127, .T. ) ;
#73 = ADVANCED_FACE ( 'NONE', ( #128 ), #80, .T. ) ;
#74 = CARTESIAN_POINT ( 'NONE',  ( 107.1649999999999900, 1.312392742306261000E-014, 0.0000000000000000000 ) ) ;
#75 = CARTESIAN_POINT ( 'NONE',  ( 0.0000000000000000000, 0.0000000000000000000, 0.0000000000000000000 ) ) ;
#76 = CIRCLE ( 'NONE', #71, 2.664999999999997800 ) ;
#77 = AXIS2_PLACEMENT_3D ( 'NONE', #74, #142, #25 ) ;
#78 = CARTESIAN_POINT ( 'NONE',  ( -107.1649999999999900, 0.0000000000000000000, 0.0000000000000000000 ) ) ;
#79 = EDGE_CURVE ( 'NONE', #66, #102, #76, .T. ) ;
#80 = TOROIDAL_SURFACE ( 'NONE', #51, 107.1649999999999900, 2.664999999999997800 ) ;
#81 = CIRCLE ( 'NONE', #48, 2.665000000000000900 ) ;
#82 = ORIENTED_EDGE ( 'NONE', *, *, #4, .T. ) ;
#83 = AXIS2_PLACEMENT_3D ( 'NONE', #145, #126, #111 ) ;
#84 = ADVANCED_BREP_SHAPE_REPRESENTATION ( '301DOR200-S1', ( #158, #3 ), #18 ) ;
#85 = ORIENTED_EDGE ( 'NONE', *, *, #119, .F. ) ;
#86 = CIRCLE ( 'NONE', #77, 2.665000000000000900 ) ;
#87 = APPLICATION_PROTOCOL_DEFINITION ( 'draft international standard', 'automotive_design', 1998, #6 ) ;
#88 = AXIS2_PLACEMENT_3D ( 'NONE', #124, #133, #107 ) ;
#89 = UNCERTAINTY_MEASURE_WITH_UNIT (LENGTH_MEASURE( 1.000000000000000100E-005 ), #59, 'distance_accuracy_value', 'NONE');
#90 = AXIS2_PLACEMENT_3D ( 'NONE', #137, #134, #97 ) ;
#91 = VERTEX_POINT ( 'NONE', #98 ) ;
#92 = PRODUCT_CONTEXT ( 'NONE', #6, 'mechanical' ) ;
#93 = DIRECTION ( 'NONE',  ( -1.000000000000000000, 0.0000000000000000000, 0.0000000000000000000 ) ) ;
#94 = DIRECTION ( 'NONE',  ( 0.0000000000000000000, -1.000000000000000000, 0.0000000000000000000 ) ) ;
#95 = DIRECTION ( 'NONE',  ( -1.000000000000000000, 0.0000000000000000000, 0.0000000000000000000 ) ) ;
#96 = EDGE_CURVE ( 'NONE', #91, #66, #61, .T. ) ;
#97 = DIRECTION ( 'NONE',  ( -1.000000000000000000, 0.0000000000000000000, 0.0000000000000000000 ) ) ;
#98 = CARTESIAN_POINT ( 'NONE',  ( 104.5000000000000000, 1.279755905108984000E-014, 0.0000000000000000000 ) ) ;
#99 =( LENGTH_UNIT ( ) NAMED_UNIT ( * ) SI_UNIT ( .MILLI., .METRE. ) );
#100 = PRODUCT_RELATED_PRODUCT_CATEGORY ( 'part', '', ( #52 ) ) ;
#101 = CIRCLE ( 'NONE', #90, 104.5000000000000000 ) ;
#102 = VERTEX_POINT ( 'NONE', #46 ) ;
#103 = EDGE_LOOP ( 'NONE', ( #67, #85, #116, #113 ) ) ;
#104 = TOROIDAL_SURFACE ( 'NONE', #83, 107.1649999999999900, 2.664999999999997800 ) ;
#105 = AXIS2_PLACEMENT_3D ( 'NONE', #32, #20, #8 ) ;
#106 = SURFACE_STYLE_FILL_AREA ( #132 ) ;
#107 = DIRECTION ( 'NONE',  ( -1.000000000000000000, 0.0000000000000000000, 0.0000000000000000000 ) ) ;
#108 = CARTESIAN_POINT ( 'NONE',  ( 0.0000000000000000000, 0.0000000000000000000, 0.0000000000000000000 ) ) ;
#109 = ORIENTED_EDGE ( 'NONE', *, *, #119, .T. ) ;
#110 = TOROIDAL_SURFACE ( 'NONE', #88, 107.1649999999999900, 2.664999999999997800 ) ;
#111 = DIRECTION ( 'NONE',  ( -1.000000000000000000, 0.0000000000000000000, 0.0000000000000000000 ) ) ;
#112 = ORIENTED_EDGE ( 'NONE', *, *, #96, .F. ) ;
#113 = ORIENTED_EDGE ( 'NONE', *, *, #79, .T. ) ;
#114 = VERTEX_POINT ( 'NONE', #39 ) ;
#115 = CIRCLE ( 'NONE', #105, 109.8300000000000000 ) ;
#116 = ORIENTED_EDGE ( 'NONE', *, *, #96, .T. ) ;
#117 =( NAMED_UNIT ( * ) SI_UNIT ( $, .STERADIAN. ) SOLID_ANGLE_UNIT ( ) );
#118 = FACE_OUTER_BOUND ( 'NONE', #23, .T. ) ;
#119 = EDGE_CURVE ( 'NONE', #91, #114, #81, .T. ) ;
#120 = CARTESIAN_POINT ( 'NONE',  ( -107.1649999999999900, 0.0000000000000000000, 0.0000000000000000000 ) ) ;
#121 = FILL_AREA_STYLE_COLOUR ( '', #47 ) ;
#122 = ADVANCED_FACE ( 'NONE', ( #62 ), #16, .T. ) ;
#123 = SURFACE_STYLE_USAGE ( .BOTH. , #140 ) ;
#124 = CARTESIAN_POINT ( 'NONE',  ( 0.0000000000000000000, 0.0000000000000000000, 0.0000000000000000000 ) ) ;
#125 = FACE_OUTER_BOUND ( 'NONE', #139, .T. ) ;
#126 = DIRECTION ( 'NONE',  ( -0.0000000000000000000, -0.0000000000000000000, -1.000000000000000000 ) ) ;
#127 = EDGE_CURVE ( 'NONE', #102, #114, #40, .T. ) ;
#128 = FACE_OUTER_BOUND ( 'NONE', #103, .T. ) ;
#129 = SURFACE_STYLE_USAGE ( .BOTH. , #146 ) ;
#130 = ORIENTED_EDGE ( 'NONE', *, *, #127, .F. ) ;
#131 = DIRECTION ( 'NONE',  ( 1.000000000000000000, 0.0000000000000000000, 0.0000000000000000000 ) ) ;
#132 = FILL_AREA_STYLE ('',( #147 ) ) ;
#133 = DIRECTION ( 'NONE',  ( -0.0000000000000000000, -0.0000000000000000000, -1.000000000000000000 ) ) ;
#134 = DIRECTION ( 'NONE',  ( -0.0000000000000000000, -0.0000000000000000000, -1.000000000000000000 ) ) ;
#135 = PRODUCT_DEFINITION_CONTEXT ( 'detailed design', #13, 'design' ) ;
#136 = EDGE_LOOP ( 'NONE', ( #150, #72, #28, #68 ) ) ;
#137 = CARTESIAN_POINT ( 'NONE',  ( 0.0000000000000000000, 0.0000000000000000000, 3.263683719727693100E-016 ) ) ;
#138 = AXIS2_PLACEMENT_3D ( 'NONE', #120, #94, #152 ) ;
#139 = EDGE_LOOP ( 'NONE', ( #29, #148, #82, #112 ) ) ;
#140 = SURFACE_SIDE_STYLE ('',( #106 ) ) ;
#141 = APPLICATION_PROTOCOL_DEFINITION ( 'draft international standard', 'automotive_design', 1998, #13 ) ;
#142 = DIRECTION ( 'NONE',  ( -1.224646799147353200E-016, 1.000000000000000000, 0.0000000000000000000 ) ) ;
#143 = DIRECTION ( 'NONE',  ( 0.0000000000000000000, -1.000000000000000000, 0.0000000000000000000 ) ) ;
#144 = CIRCLE ( 'NONE', #138, 2.664999999999997800 ) ;
#145 = CARTESIAN_POINT ( 'NONE',  ( 0.0000000000000000000, 0.0000000000000000000, 0.0000000000000000000 ) ) ;
#146 = SURFACE_SIDE_STYLE ('',( #45 ) ) ;
#147 = FILL_AREA_STYLE_COLOUR ( '', #58 ) ;
#148 = ORIENTED_EDGE ( 'NONE', *, *, #15, .T. ) ;
#149 =( NAMED_UNIT ( * ) PLANE_ANGLE_UNIT ( ) SI_UNIT ( $, .RADIAN. ) );
#150 = ORIENTED_EDGE ( 'NONE', *, *, #4, .F. ) ;
#151 = ORIENTED_EDGE ( 'NONE', *, *, #57, .T. ) ;
#152 = DIRECTION ( 'NONE',  ( 0.0000000000000000000, 0.0000000000000000000, -1.000000000000000000 ) ) ;
#153 = DIRECTION ( 'NONE',  ( 0.0000000000000000000, 0.0000000000000000000, 1.000000000000000000 ) ) ;
#154 = DIRECTION ( 'NONE',  ( -0.0000000000000000000, -0.0000000000000000000, -1.000000000000000000 ) ) ;
#155 = DIRECTION ( 'NONE',  ( -0.0000000000000000000, -0.0000000000000000000, -1.000000000000000000 ) ) ;
#156 = SHAPE_DEFINITION_REPRESENTATION ( #30, #84 ) ;
#157 = DIRECTION ( 'NONE',  ( -0.0000000000000000000, -0.0000000000000000000, -1.000000000000000000 ) ) ;
#158 = MANIFOLD_SOLID_BREP ( 'Rotation1', #12 ) ;
ENDSEC;
END-ISO-10303-21;
