ISO-10303-21;
HEADER;
FILE_DESCRIPTION (( 'STEP AP214' ),
    '1' );
FILE_NAME ('104DOR025-S1.step',
    '2017-07-06T09:24:53',
    ( 'install' ),
    ( '' ),
    'SwSTEP 2.0',
    'SolidWorks 2015',
    '' );
FILE_SCHEMA (( 'AUTOMOTIVE_DESIGN' ));
ENDSEC;

DATA;
#1 = ADVANCED_FACE ( 'NONE', ( #121 ), #51, .T. ) ;
#2 = PRESENTATION_LAYER_ASSIGNMENT (  '', '', ( #155 ) ) ;
#3 = CARTESIAN_POINT ( 'NONE',  ( 0.0000000000000000000, 0.0000000000000000000, 0.0000000000000000000 ) ) ;
#4 = CARTESIAN_POINT ( 'NONE',  ( 19.00000000000000000, 0.0000000000000000000, 0.0000000000000000000 ) ) ;
#5 =( NAMED_UNIT ( * ) SI_UNIT ( $, .STERADIAN. ) SOLID_ANGLE_UNIT ( ) );
#6 = AXIS2_PLACEMENT_3D ( 'NONE', #95, #112, #49 ) ;
#7 = SURFACE_SIDE_STYLE ('',( #138 ) ) ;
#8 = ORIENTED_EDGE ( 'NONE', *, *, #68, .F. ) ;
#9 = MECHANICAL_DESIGN_GEOMETRIC_PRESENTATION_REPRESENTATION (  '', ( #155 ), #17 ) ;
#10 = ORIENTED_EDGE ( 'NONE', *, *, #105, .F. ) ;
#11 = PRODUCT_DEFINITION ( 'UNKNOWN', '', #22, #26 ) ;
#12 = CARTESIAN_POINT ( 'NONE',  ( 0.0000000000000000000, 0.0000000000000000000, 0.0000000000000000000 ) ) ;
#13 = EDGE_LOOP ( 'NONE', ( #129, #147, #148, #10 ) ) ;
#14 = DIRECTION ( 'NONE',  ( -0.0000000000000000000, -0.0000000000000000000, 1.000000000000000000 ) ) ;
#15 = DIRECTION ( 'NONE',  ( -0.0000000000000000000, -0.0000000000000000000, 1.000000000000000000 ) ) ;
#16 = DIRECTION ( 'NONE',  ( -0.0000000000000000000, -0.0000000000000000000, 1.000000000000000000 ) ) ;
#17 =( GEOMETRIC_REPRESENTATION_CONTEXT ( 3 ) GLOBAL_UNCERTAINTY_ASSIGNED_CONTEXT ( ( #36 ) ) GLOBAL_UNIT_ASSIGNED_CONTEXT ( ( #40, #91, #5 ) ) REPRESENTATION_CONTEXT ( 'NONE', 'WORKASPACE' ) );
#18 = CARTESIAN_POINT ( 'NONE',  ( 0.0000000000000000000, 0.0000000000000000000, 0.0000000000000000000 ) ) ;
#19 = ORIENTED_EDGE ( 'NONE', *, *, #114, .F. ) ;
#20 = FILL_AREA_STYLE ('',( #66 ) ) ;
#21 = PRESENTATION_STYLE_ASSIGNMENT (( #28 ) ) ;
#22 = PRODUCT_DEFINITION_FORMATION_WITH_SPECIFIED_SOURCE ( 'ANY', '', #67, .NOT_KNOWN. ) ;
#23 = AXIS2_PLACEMENT_3D ( 'NONE', #76, #16, #92 ) ;
#24 = CARTESIAN_POINT ( 'NONE',  ( 16.50000000000000000, 0.0000000000000000000, 0.0000000000000000000 ) ) ;
#25 = SURFACE_SIDE_STYLE ('',( #69 ) ) ;
#26 = PRODUCT_DEFINITION_CONTEXT ( 'detailed design', #124, 'design' ) ;
#27 = PRODUCT_RELATED_PRODUCT_CATEGORY ( 'part', '', ( #67 ) ) ;
#28 = SURFACE_STYLE_USAGE ( .BOTH. , #7 ) ;
#29 = AXIS2_PLACEMENT_3D ( 'NONE', #24, #153, #72 ) ;
#30 =( NAMED_UNIT ( * ) PLANE_ANGLE_UNIT ( ) SI_UNIT ( $, .RADIAN. ) );
#31 = ORIENTED_EDGE ( 'NONE', *, *, #85, .T. ) ;
#32 = UNCERTAINTY_MEASURE_WITH_UNIT (LENGTH_MEASURE( 1.000000000000000100E-005 ), #158, 'distance_accuracy_value', 'NONE');
#33 = CIRCLE ( 'NONE', #23, 14.00000000000000200 ) ;
#34 = COLOUR_RGB ( '',0.6980392156862744700, 0.6980392156862744700, 0.6980392156862744700 ) ;
#35 = DIRECTION ( 'NONE',  ( -0.0000000000000000000, -0.0000000000000000000, 1.000000000000000000 ) ) ;
#36 = UNCERTAINTY_MEASURE_WITH_UNIT (LENGTH_MEASURE( 1.000000000000000100E-005 ), #40, 'distance_accuracy_value', 'NONE');
#37 = CARTESIAN_POINT ( 'NONE',  ( 0.0000000000000000000, 0.0000000000000000000, 0.0000000000000000000 ) ) ;
#38 = FILL_AREA_STYLE_COLOUR ( '', #118 ) ;
#39 = AXIS2_PLACEMENT_3D ( 'NONE', #98, #140, #57 ) ;
#40 =( LENGTH_UNIT ( ) NAMED_UNIT ( * ) SI_UNIT ( .MILLI., .METRE. ) );
#41 = FACE_OUTER_BOUND ( 'NONE', #119, .T. ) ;
#42 =( NAMED_UNIT ( * ) PLANE_ANGLE_UNIT ( ) SI_UNIT ( $, .RADIAN. ) );
#43 = ADVANCED_FACE ( 'NONE', ( #108 ), #113, .T. ) ;
#44 = AXIS2_PLACEMENT_3D ( 'NONE', #37, #90, #74 ) ;
#45 = CIRCLE ( 'NONE', #39, 2.499999999999998700 ) ;
#46 = CARTESIAN_POINT ( 'NONE',  ( -16.50000000000000000, 2.020667218593133100E-015, 0.0000000000000000000 ) ) ;
#47 = CARTESIAN_POINT ( 'NONE',  ( 16.50000000000000000, 0.0000000000000000000, 0.0000000000000000000 ) ) ;
#48 = ORIENTED_EDGE ( 'NONE', *, *, #96, .F. ) ;
#49 = DIRECTION ( 'NONE',  ( 1.000000000000000000, 0.0000000000000000000, 0.0000000000000000000 ) ) ;
#50 = FACE_OUTER_BOUND ( 'NONE', #122, .T. ) ;
#51 = TOROIDAL_SURFACE ( 'NONE', #137, 16.50000000000000000, 2.499999999999998700 ) ;
#52 =( NAMED_UNIT ( * ) SI_UNIT ( $, .STERADIAN. ) SOLID_ANGLE_UNIT ( ) );
#53 = AXIS2_PLACEMENT_3D ( 'NONE', #46, #87, #142 ) ;
#54 = MANIFOLD_SOLID_BREP ( 'Rotation1', #136 ) ;
#55 = TOROIDAL_SURFACE ( 'NONE', #94, 16.50000000000000000, 2.499999999999998700 ) ;
#56 = EDGE_CURVE ( 'NONE', #100, #104, #65, .T. ) ;
#57 = DIRECTION ( 'NONE',  ( -1.000000000000000000, 1.224646799147352700E-016, 0.0000000000000000000 ) ) ;
#58 = TOROIDAL_SURFACE ( 'NONE', #97, 16.50000000000000000, 2.499999999999998700 ) ;
#59 = DIRECTION ( 'NONE',  ( 1.000000000000000000, 0.0000000000000000000, 0.0000000000000000000 ) ) ;
#60 = ADVANCED_BREP_SHAPE_REPRESENTATION ( '104DOR025-S1', ( #54, #6 ), #82 ) ;
#61 = APPLICATION_PROTOCOL_DEFINITION ( 'draft international standard', 'automotive_design', 1998, #124 ) ;
#62 = DIRECTION ( 'NONE',  ( 0.0000000000000000000, 0.0000000000000000000, -1.000000000000000000 ) ) ;
#63 = AXIS2_PLACEMENT_3D ( 'NONE', #123, #35, #106 ) ;
#64 = DIRECTION ( 'NONE',  ( 1.000000000000000000, 0.0000000000000000000, 0.0000000000000000000 ) ) ;
#65 = CIRCLE ( 'NONE', #125, 2.499999999999998700 ) ;
#66 = FILL_AREA_STYLE_COLOUR ( '', #34 ) ;
#67 = PRODUCT ( '104DOR025-S1', '104DOR025-S1', '', ( #110 ) ) ;
#68 = EDGE_CURVE ( 'NONE', #104, #157, #33, .T. ) ;
#69 = SURFACE_STYLE_FILL_AREA ( #78 ) ;
#70 = CIRCLE ( 'NONE', #53, 2.499999999999998700 ) ;
#71 = AXIS2_PLACEMENT_3D ( 'NONE', #3, #154, #59 ) ;
#72 = DIRECTION ( 'NONE',  ( 0.0000000000000000000, 0.0000000000000000000, -1.000000000000000000 ) ) ;
#73 = DIRECTION ( 'NONE',  ( 1.000000000000000000, 0.0000000000000000000, 0.0000000000000000000 ) ) ;
#74 = DIRECTION ( 'NONE',  ( 1.000000000000000000, 0.0000000000000000000, 0.0000000000000000000 ) ) ;
#75 = VERTEX_POINT ( 'NONE', #109 ) ;
#76 = CARTESIAN_POINT ( 'NONE',  ( 0.0000000000000000000, 0.0000000000000000000, -3.061616997868381700E-016 ) ) ;
#77 = EDGE_CURVE ( 'NONE', #104, #100, #107, .T. ) ;
#78 = FILL_AREA_STYLE ('',( #38 ) ) ;
#79 = DIRECTION ( 'NONE',  ( -0.0000000000000000000, -0.0000000000000000000, 1.000000000000000000 ) ) ;
#80 = ORIENTED_EDGE ( 'NONE', *, *, #56, .F. ) ;
#81 =( LENGTH_UNIT ( ) NAMED_UNIT ( * ) SI_UNIT ( .MILLI., .METRE. ) );
#82 =( GEOMETRIC_REPRESENTATION_CONTEXT ( 3 ) GLOBAL_UNCERTAINTY_ASSIGNED_CONTEXT ( ( #133 ) ) GLOBAL_UNIT_ASSIGNED_CONTEXT ( ( #81, #42, #52 ) ) REPRESENTATION_CONTEXT ( 'NONE', 'WORKASPACE' ) );
#83 = ORIENTED_EDGE ( 'NONE', *, *, #68, .T. ) ;
#84 = CIRCLE ( 'NONE', #44, 19.00000000000000000 ) ;
#85 = EDGE_CURVE ( 'NONE', #157, #75, #45, .T. ) ;
#86 = ORIENTED_EDGE ( 'NONE', *, *, #114, .T. ) ;
#87 = DIRECTION ( 'NONE',  ( 1.224646799147353200E-016, 1.000000000000000000, 0.0000000000000000000 ) ) ;
#88 = CIRCLE ( 'NONE', #71, 19.00000000000000000 ) ;
#89 = DIRECTION ( 'NONE',  ( -0.0000000000000000000, -0.0000000000000000000, 1.000000000000000000 ) ) ;
#90 = DIRECTION ( 'NONE',  ( -0.0000000000000000000, -0.0000000000000000000, 1.000000000000000000 ) ) ;
#91 =( NAMED_UNIT ( * ) PLANE_ANGLE_UNIT ( ) SI_UNIT ( $, .RADIAN. ) );
#92 = DIRECTION ( 'NONE',  ( 1.000000000000000000, 0.0000000000000000000, 0.0000000000000000000 ) ) ;
#93 = DIRECTION ( 'NONE',  ( 1.000000000000000000, 0.0000000000000000000, 0.0000000000000000000 ) ) ;
#94 = AXIS2_PLACEMENT_3D ( 'NONE', #156, #14, #73 ) ;
#95 = CARTESIAN_POINT ( 'NONE',  ( 0.0000000000000000000, 0.0000000000000000000, 0.0000000000000000000 ) ) ;
#96 = EDGE_CURVE ( 'NONE', #75, #100, #84, .T. ) ;
#97 = AXIS2_PLACEMENT_3D ( 'NONE', #12, #89, #99 ) ;
#98 = CARTESIAN_POINT ( 'NONE',  ( -16.50000000000000000, 2.020667218593133100E-015, 0.0000000000000000000 ) ) ;
#99 = DIRECTION ( 'NONE',  ( 1.000000000000000000, 0.0000000000000000000, 0.0000000000000000000 ) ) ;
#100 = VERTEX_POINT ( 'NONE', #4 ) ;
#101 = SURFACE_STYLE_USAGE ( .BOTH. , #25 ) ;
#102 = EDGE_CURVE ( 'NONE', #75, #157, #70, .T. ) ;
#103 = PRESENTATION_STYLE_ASSIGNMENT (( #101 ) ) ;
#104 = VERTEX_POINT ( 'NONE', #144 ) ;
#105 = EDGE_CURVE ( 'NONE', #157, #104, #117, .T. ) ;
#106 = DIRECTION ( 'NONE',  ( 1.000000000000000000, 0.0000000000000000000, 0.0000000000000000000 ) ) ;
#107 = CIRCLE ( 'NONE', #29, 2.499999999999998700 ) ;
#108 = FACE_OUTER_BOUND ( 'NONE', #13, .T. ) ;
#109 = CARTESIAN_POINT ( 'NONE',  ( -19.00000000000000000, 2.326828918379971000E-015, 0.0000000000000000000 ) ) ;
#110 = PRODUCT_CONTEXT ( 'NONE', #130, 'mechanical' ) ;
#111 = STYLED_ITEM ( 'NONE', ( #21 ), #60 ) ;
#112 = DIRECTION ( 'NONE',  ( 0.0000000000000000000, 0.0000000000000000000, 1.000000000000000000 ) ) ;
#113 = TOROIDAL_SURFACE ( 'NONE', #149, 16.50000000000000000, 2.499999999999998700 ) ;
#114 = EDGE_CURVE ( 'NONE', #100, #75, #88, .T. ) ;
#115 =( NAMED_UNIT ( * ) SI_UNIT ( $, .STERADIAN. ) SOLID_ANGLE_UNIT ( ) );
#116 = PRODUCT_DEFINITION_SHAPE ( 'NONE', 'NONE',  #11 ) ;
#117 = CIRCLE ( 'NONE', #63, 14.00000000000000200 ) ;
#118 = COLOUR_RGB ( '',0.6980392156862744700, 0.6980392156862744700, 0.6980392156862744700 ) ;
#119 = EDGE_LOOP ( 'NONE', ( #19, #151, #83, #31 ) ) ;
#120 = PRESENTATION_LAYER_ASSIGNMENT (  '', '', ( #111 ) ) ;
#121 = FACE_OUTER_BOUND ( 'NONE', #150, .T. ) ;
#122 = EDGE_LOOP ( 'NONE', ( #48, #128, #132, #139 ) ) ;
#123 = CARTESIAN_POINT ( 'NONE',  ( 0.0000000000000000000, 0.0000000000000000000, -3.061616997868381700E-016 ) ) ;
#124 = APPLICATION_CONTEXT ( 'automotive_design' ) ;
#125 = AXIS2_PLACEMENT_3D ( 'NONE', #47, #143, #62 ) ;
#126 = CARTESIAN_POINT ( 'NONE',  ( 0.0000000000000000000, 0.0000000000000000000, 0.0000000000000000000 ) ) ;
#127 = APPLICATION_PROTOCOL_DEFINITION ( 'draft international standard', 'automotive_design', 1998, #130 ) ;
#128 = ORIENTED_EDGE ( 'NONE', *, *, #85, .F. ) ;
#129 = ORIENTED_EDGE ( 'NONE', *, *, #102, .F. ) ;
#130 = APPLICATION_CONTEXT ( 'automotive_design' ) ;
#131 = MECHANICAL_DESIGN_GEOMETRIC_PRESENTATION_REPRESENTATION (  '', ( #111 ), #146 ) ;
#132 = ORIENTED_EDGE ( 'NONE', *, *, #105, .T. ) ;
#133 = UNCERTAINTY_MEASURE_WITH_UNIT (LENGTH_MEASURE( 1.000000000000000100E-005 ), #81, 'distance_accuracy_value', 'NONE');
#134 = ADVANCED_FACE ( 'NONE', ( #41 ), #55, .T. ) ;
#135 = SHAPE_DEFINITION_REPRESENTATION ( #116, #60 ) ;
#136 = CLOSED_SHELL ( 'NONE', ( #43, #1, #134, #145 ) ) ;
#137 = AXIS2_PLACEMENT_3D ( 'NONE', #126, #15, #64 ) ;
#138 = SURFACE_STYLE_FILL_AREA ( #20 ) ;
#139 = ORIENTED_EDGE ( 'NONE', *, *, #77, .T. ) ;
#140 = DIRECTION ( 'NONE',  ( 1.224646799147353200E-016, 1.000000000000000000, 0.0000000000000000000 ) ) ;
#141 = CARTESIAN_POINT ( 'NONE',  ( -14.00000000000000200, 1.714505518806294800E-015, -3.061616997868381700E-016 ) ) ;
#142 = DIRECTION ( 'NONE',  ( -1.000000000000000000, 1.224646799147352700E-016, 0.0000000000000000000 ) ) ;
#143 = DIRECTION ( 'NONE',  ( 0.0000000000000000000, -1.000000000000000000, 0.0000000000000000000 ) ) ;
#144 = CARTESIAN_POINT ( 'NONE',  ( 14.00000000000000200, 0.0000000000000000000, -3.061616997868381700E-016 ) ) ;
#145 = ADVANCED_FACE ( 'NONE', ( #50 ), #58, .T. ) ;
#146 =( GEOMETRIC_REPRESENTATION_CONTEXT ( 3 ) GLOBAL_UNCERTAINTY_ASSIGNED_CONTEXT ( ( #32 ) ) GLOBAL_UNIT_ASSIGNED_CONTEXT ( ( #158, #30, #115 ) ) REPRESENTATION_CONTEXT ( 'NONE', 'WORKASPACE' ) );
#147 = ORIENTED_EDGE ( 'NONE', *, *, #96, .T. ) ;
#148 = ORIENTED_EDGE ( 'NONE', *, *, #56, .T. ) ;
#149 = AXIS2_PLACEMENT_3D ( 'NONE', #18, #79, #93 ) ;
#150 = EDGE_LOOP ( 'NONE', ( #80, #86, #152, #8 ) ) ;
#151 = ORIENTED_EDGE ( 'NONE', *, *, #77, .F. ) ;
#152 = ORIENTED_EDGE ( 'NONE', *, *, #102, .T. ) ;
#153 = DIRECTION ( 'NONE',  ( 0.0000000000000000000, -1.000000000000000000, 0.0000000000000000000 ) ) ;
#154 = DIRECTION ( 'NONE',  ( -0.0000000000000000000, -0.0000000000000000000, 1.000000000000000000 ) ) ;
#155 = STYLED_ITEM ( 'NONE', ( #103 ), #54 ) ;
#156 = CARTESIAN_POINT ( 'NONE',  ( 0.0000000000000000000, 0.0000000000000000000, 0.0000000000000000000 ) ) ;
#157 = VERTEX_POINT ( 'NONE', #141 ) ;
#158 =( LENGTH_UNIT ( ) NAMED_UNIT ( * ) SI_UNIT ( .MILLI., .METRE. ) );
ENDSEC;
END-ISO-10303-21;
