ISO-10303-21;
HEADER;
FILE_DESCRIPTION (( 'STEP AP214' ),
    '1' );
FILE_NAME ('306DOR320-S1.step',
    '2017-07-07T05:02:06',
    ( 'install' ),
    ( '' ),
    'SwSTEP 2.0',
    'SolidWorks 2015',
    '' );
FILE_SCHEMA (( 'AUTOMOTIVE_DESIGN' ));
ENDSEC;

DATA;
#1 = EDGE_CURVE ( 'NONE', #87, #104, #43, .T. ) ;
#2 = CIRCLE ( 'NONE', #92, 165.5000000000000000 ) ;
#3 = EDGE_CURVE ( 'NONE', #139, #87, #32, .T. ) ;
#4 = CARTESIAN_POINT ( 'NONE',  ( 0.0000000000000000000, 0.0000000000000000000, 0.0000000000000000000 ) ) ;
#5 = CARTESIAN_POINT ( 'NONE',  ( -165.5000000000000000, 0.0000000000000000000, 0.0000000000000000000 ) ) ;
#6 = DIRECTION ( 'NONE',  ( 0.0000000000000000000, 0.0000000000000000000, -1.000000000000000000 ) ) ;
#7 =( LENGTH_UNIT ( ) NAMED_UNIT ( * ) SI_UNIT ( .MILLI., .METRE. ) );
#8 =( NAMED_UNIT ( * ) SI_UNIT ( $, .STERADIAN. ) SOLID_ANGLE_UNIT ( ) );
#9 = TOROIDAL_SURFACE ( 'NONE', #41, 162.0000000000000000, 3.500000000000001800 ) ;
#10 =( LENGTH_UNIT ( ) NAMED_UNIT ( * ) SI_UNIT ( .MILLI., .METRE. ) );
#11 = PRESENTATION_LAYER_ASSIGNMENT (  '', '', ( #138 ) ) ;
#12 = ORIENTED_EDGE ( 'NONE', *, *, #119, .F. ) ;
#13 = ORIENTED_EDGE ( 'NONE', *, *, #150, .T. ) ;
#14 = AXIS2_PLACEMENT_3D ( 'NONE', #129, #121, #83 ) ;
#15 = ORIENTED_EDGE ( 'NONE', *, *, #119, .T. ) ;
#16 = SHAPE_DEFINITION_REPRESENTATION ( #153, #21 ) ;
#17 = CARTESIAN_POINT ( 'NONE',  ( -162.0000000000000000, 0.0000000000000000000, 0.0000000000000000000 ) ) ;
#18 = DIRECTION ( 'NONE',  ( -1.000000000000000000, 0.0000000000000000000, 0.0000000000000000000 ) ) ;
#19 = CARTESIAN_POINT ( 'NONE',  ( 162.0000000000000000, 1.983927814618712200E-014, 0.0000000000000000000 ) ) ;
#20 = MECHANICAL_DESIGN_GEOMETRIC_PRESENTATION_REPRESENTATION (  '', ( #138 ), #30 ) ;
#21 = ADVANCED_BREP_SHAPE_REPRESENTATION ( '306DOR320-S1', ( #102, #55 ), #157 ) ;
#22 =( NAMED_UNIT ( * ) SI_UNIT ( $, .STERADIAN. ) SOLID_ANGLE_UNIT ( ) );
#23 = ORIENTED_EDGE ( 'NONE', *, *, #136, .F. ) ;
#24 = DIRECTION ( 'NONE',  ( 0.0000000000000000000, 0.0000000000000000000, 1.000000000000000000 ) ) ;
#25 = TOROIDAL_SURFACE ( 'NONE', #131, 162.0000000000000000, 3.500000000000001800 ) ;
#26 = AXIS2_PLACEMENT_3D ( 'NONE', #19, #109, #42 ) ;
#27 = ORIENTED_EDGE ( 'NONE', *, *, #115, .F. ) ;
#28 = DIRECTION ( 'NONE',  ( -1.000000000000000000, 0.0000000000000000000, 0.0000000000000000000 ) ) ;
#29 = EDGE_LOOP ( 'NONE', ( #27, #15, #53, #23 ) ) ;
#30 =( GEOMETRIC_REPRESENTATION_CONTEXT ( 3 ) GLOBAL_UNCERTAINTY_ASSIGNED_CONTEXT ( ( #62 ) ) GLOBAL_UNIT_ASSIGNED_CONTEXT ( ( #158, #88, #8 ) ) REPRESENTATION_CONTEXT ( 'NONE', 'WORKASPACE' ) );
#31 = PRODUCT ( '306DOR320-S1', '306DOR320-S1', '', ( #37 ) ) ;
#32 = CIRCLE ( 'NONE', #26, 3.500000000000003100 ) ;
#33 = DIRECTION ( 'NONE',  ( 0.0000000000000000000, 0.0000000000000000000, -1.000000000000000000 ) ) ;
#34 = AXIS2_PLACEMENT_3D ( 'NONE', #17, #107, #33 ) ;
#35 = CARTESIAN_POINT ( 'NONE',  ( 0.0000000000000000000, 0.0000000000000000000, 0.0000000000000000000 ) ) ;
#36 = APPLICATION_PROTOCOL_DEFINITION ( 'draft international standard', 'automotive_design', 1998, #48 ) ;
#37 = PRODUCT_CONTEXT ( 'NONE', #48, 'mechanical' ) ;
#38 = CLOSED_SHELL ( 'NONE', ( #95, #154, #142, #44 ) ) ;
#39 = UNCERTAINTY_MEASURE_WITH_UNIT (LENGTH_MEASURE( 1.000000000000000100E-005 ), #7, 'distance_accuracy_value', 'NONE');
#40 = FACE_OUTER_BOUND ( 'NONE', #113, .T. ) ;
#41 = AXIS2_PLACEMENT_3D ( 'NONE', #155, #97, #28 ) ;
#42 = DIRECTION ( 'NONE',  ( -1.000000000000000000, -1.224646799147349500E-016, 0.0000000000000000000 ) ) ;
#43 = CIRCLE ( 'NONE', #14, 158.5000000000000000 ) ;
#44 = ADVANCED_FACE ( 'NONE', ( #137 ), #9, .T. ) ;
#45 = FILL_AREA_STYLE ('',( #134 ) ) ;
#46 = DIRECTION ( 'NONE',  ( -0.0000000000000000000, -0.0000000000000000000, -1.000000000000000000 ) ) ;
#47 = DIRECTION ( 'NONE',  ( -0.0000000000000000000, -0.0000000000000000000, -1.000000000000000000 ) ) ;
#48 = APPLICATION_CONTEXT ( 'automotive_design' ) ;
#49 = VERTEX_POINT ( 'NONE', #5 ) ;
#50 = APPLICATION_PROTOCOL_DEFINITION ( 'draft international standard', 'automotive_design', 1998, #124 ) ;
#51 = AXIS2_PLACEMENT_3D ( 'NONE', #100, #86, #140 ) ;
#52 = SURFACE_SIDE_STYLE ('',( #103 ) ) ;
#53 = ORIENTED_EDGE ( 'NONE', *, *, #3, .T. ) ;
#54 = SURFACE_STYLE_FILL_AREA ( #65 ) ;
#55 = AXIS2_PLACEMENT_3D ( 'NONE', #111, #24, #112 ) ;
#56 = ORIENTED_EDGE ( 'NONE', *, *, #3, .F. ) ;
#57 = FACE_OUTER_BOUND ( 'NONE', #148, .T. ) ;
#58 = CARTESIAN_POINT ( 'NONE',  ( 0.0000000000000000000, 0.0000000000000000000, 0.0000000000000000000 ) ) ;
#59 = STYLED_ITEM ( 'NONE', ( #69 ), #102 ) ;
#60 = DIRECTION ( 'NONE',  ( -0.0000000000000000000, -0.0000000000000000000, -1.000000000000000000 ) ) ;
#61 = UNCERTAINTY_MEASURE_WITH_UNIT (LENGTH_MEASURE( 1.000000000000000100E-005 ), #10, 'distance_accuracy_value', 'NONE');
#62 = UNCERTAINTY_MEASURE_WITH_UNIT (LENGTH_MEASURE( 1.000000000000000100E-005 ), #158, 'distance_accuracy_value', 'NONE');
#63 = DIRECTION ( 'NONE',  ( -1.224646799147353200E-016, 1.000000000000000000, 0.0000000000000000000 ) ) ;
#64 = ORIENTED_EDGE ( 'NONE', *, *, #141, .T. ) ;
#65 = FILL_AREA_STYLE ('',( #133 ) ) ;
#66 = PRODUCT_DEFINITION ( 'UNKNOWN', '', #74, #67 ) ;
#67 = PRODUCT_DEFINITION_CONTEXT ( 'detailed design', #124, 'design' ) ;
#68 = PRESENTATION_LAYER_ASSIGNMENT (  '', '', ( #59 ) ) ;
#69 = PRESENTATION_STYLE_ASSIGNMENT (( #114 ) ) ;
#70 = CARTESIAN_POINT ( 'NONE',  ( -158.5000000000000000, 0.0000000000000000000, 4.286263797015737100E-016 ) ) ;
#71 = DIRECTION ( 'NONE',  ( -1.000000000000000000, 0.0000000000000000000, 0.0000000000000000000 ) ) ;
#72 = CARTESIAN_POINT ( 'NONE',  ( 0.0000000000000000000, 0.0000000000000000000, 0.0000000000000000000 ) ) ;
#73 = DIRECTION ( 'NONE',  ( -1.000000000000000000, 0.0000000000000000000, 0.0000000000000000000 ) ) ;
#74 = PRODUCT_DEFINITION_FORMATION_WITH_SPECIFIED_SOURCE ( 'ANY', '', #31, .NOT_KNOWN. ) ;
#75 = SURFACE_STYLE_USAGE ( .BOTH. , #145 ) ;
#76 = TOROIDAL_SURFACE ( 'NONE', #51, 162.0000000000000000, 3.500000000000001800 ) ;
#77 = PRESENTATION_STYLE_ASSIGNMENT (( #75 ) ) ;
#78 = MECHANICAL_DESIGN_GEOMETRIC_PRESENTATION_REPRESENTATION (  '', ( #59 ), #84 ) ;
#79 = CIRCLE ( 'NONE', #117, 3.500000000000001800 ) ;
#80 = CARTESIAN_POINT ( 'NONE',  ( 158.5000000000000000, 1.941065176648554900E-014, 0.0000000000000000000 ) ) ;
#81 = PRODUCT_RELATED_PRODUCT_CATEGORY ( 'part', '', ( #31 ) ) ;
#82 = ORIENTED_EDGE ( 'NONE', *, *, #127, .T. ) ;
#83 = DIRECTION ( 'NONE',  ( -1.000000000000000000, 0.0000000000000000000, 0.0000000000000000000 ) ) ;
#84 =( GEOMETRIC_REPRESENTATION_CONTEXT ( 3 ) GLOBAL_UNCERTAINTY_ASSIGNED_CONTEXT ( ( #61 ) ) GLOBAL_UNIT_ASSIGNED_CONTEXT ( ( #10, #105, #128 ) ) REPRESENTATION_CONTEXT ( 'NONE', 'WORKASPACE' ) );
#85 = DIRECTION ( 'NONE',  ( 0.0000000000000000000, -1.000000000000000000, 0.0000000000000000000 ) ) ;
#86 = DIRECTION ( 'NONE',  ( -0.0000000000000000000, -0.0000000000000000000, -1.000000000000000000 ) ) ;
#87 = VERTEX_POINT ( 'NONE', #80 ) ;
#88 =( NAMED_UNIT ( * ) PLANE_ANGLE_UNIT ( ) SI_UNIT ( $, .RADIAN. ) );
#89 = TOROIDAL_SURFACE ( 'NONE', #147, 162.0000000000000000, 3.500000000000001800 ) ;
#90 = ORIENTED_EDGE ( 'NONE', *, *, #1, .F. ) ;
#91 = FACE_OUTER_BOUND ( 'NONE', #29, .T. ) ;
#92 = AXIS2_PLACEMENT_3D ( 'NONE', #58, #143, #71 ) ;
#93 = ORIENTED_EDGE ( 'NONE', *, *, #1, .T. ) ;
#94 = EDGE_LOOP ( 'NONE', ( #123, #146, #93, #64 ) ) ;
#95 = ADVANCED_FACE ( 'NONE', ( #40 ), #76, .T. ) ;
#96 = DIRECTION ( 'NONE',  ( -0.0000000000000000000, -0.0000000000000000000, -1.000000000000000000 ) ) ;
#97 = DIRECTION ( 'NONE',  ( -0.0000000000000000000, -0.0000000000000000000, -1.000000000000000000 ) ) ;
#98 = DIRECTION ( 'NONE',  ( -1.000000000000000000, 0.0000000000000000000, 0.0000000000000000000 ) ) ;
#99 =( NAMED_UNIT ( * ) PLANE_ANGLE_UNIT ( ) SI_UNIT ( $, .RADIAN. ) );
#100 = CARTESIAN_POINT ( 'NONE',  ( 0.0000000000000000000, 0.0000000000000000000, 0.0000000000000000000 ) ) ;
#101 = AXIS2_PLACEMENT_3D ( 'NONE', #4, #96, #18 ) ;
#102 = MANIFOLD_SOLID_BREP ( 'Rotation1', #38 ) ;
#103 = SURFACE_STYLE_FILL_AREA ( #45 ) ;
#104 = VERTEX_POINT ( 'NONE', #70 ) ;
#105 =( NAMED_UNIT ( * ) PLANE_ANGLE_UNIT ( ) SI_UNIT ( $, .RADIAN. ) );
#106 = CIRCLE ( 'NONE', #34, 3.500000000000001800 ) ;
#107 = DIRECTION ( 'NONE',  ( 0.0000000000000000000, -1.000000000000000000, 0.0000000000000000000 ) ) ;
#108 = COLOUR_RGB ( '',0.3843137254901960500, 0.3843137254901960500, 0.3843137254901960500 ) ;
#109 = DIRECTION ( 'NONE',  ( -1.224646799147353200E-016, 1.000000000000000000, 0.0000000000000000000 ) ) ;
#110 = AXIS2_PLACEMENT_3D ( 'NONE', #122, #46, #130 ) ;
#111 = CARTESIAN_POINT ( 'NONE',  ( 0.0000000000000000000, 0.0000000000000000000, 0.0000000000000000000 ) ) ;
#112 = DIRECTION ( 'NONE',  ( 1.000000000000000000, 0.0000000000000000000, 0.0000000000000000000 ) ) ;
#113 = EDGE_LOOP ( 'NONE', ( #56, #82, #116, #90 ) ) ;
#114 = SURFACE_STYLE_USAGE ( .BOTH. , #52 ) ;
#115 = EDGE_CURVE ( 'NONE', #49, #104, #106, .T. ) ;
#116 = ORIENTED_EDGE ( 'NONE', *, *, #115, .T. ) ;
#117 = AXIS2_PLACEMENT_3D ( 'NONE', #156, #85, #6 ) ;
#118 = ORIENTED_EDGE ( 'NONE', *, *, #141, .F. ) ;
#119 = EDGE_CURVE ( 'NONE', #49, #139, #2, .T. ) ;
#120 = CARTESIAN_POINT ( 'NONE',  ( 165.5000000000000000, 2.026790452588869200E-014, 0.0000000000000000000 ) ) ;
#121 = DIRECTION ( 'NONE',  ( -0.0000000000000000000, -0.0000000000000000000, -1.000000000000000000 ) ) ;
#122 = CARTESIAN_POINT ( 'NONE',  ( 0.0000000000000000000, 0.0000000000000000000, 4.286263797015738100E-016 ) ) ;
#123 = ORIENTED_EDGE ( 'NONE', *, *, #127, .F. ) ;
#124 = APPLICATION_CONTEXT ( 'automotive_design' ) ;
#125 = CIRCLE ( 'NONE', #110, 158.5000000000000000 ) ;
#126 = AXIS2_PLACEMENT_3D ( 'NONE', #132, #63, #144 ) ;
#127 = EDGE_CURVE ( 'NONE', #139, #49, #152, .T. ) ;
#128 =( NAMED_UNIT ( * ) SI_UNIT ( $, .STERADIAN. ) SOLID_ANGLE_UNIT ( ) );
#129 = CARTESIAN_POINT ( 'NONE',  ( 0.0000000000000000000, 0.0000000000000000000, 4.286263797015738100E-016 ) ) ;
#130 = DIRECTION ( 'NONE',  ( -1.000000000000000000, 0.0000000000000000000, 0.0000000000000000000 ) ) ;
#131 = AXIS2_PLACEMENT_3D ( 'NONE', #35, #60, #98 ) ;
#132 = CARTESIAN_POINT ( 'NONE',  ( 162.0000000000000000, 1.983927814618712200E-014, 0.0000000000000000000 ) ) ;
#133 = FILL_AREA_STYLE_COLOUR ( '', #108 ) ;
#134 = FILL_AREA_STYLE_COLOUR ( '', #135 ) ;
#135 = COLOUR_RGB ( '',0.3843137254901960500, 0.3843137254901960500, 0.3843137254901960500 ) ;
#136 = EDGE_CURVE ( 'NONE', #104, #87, #125, .T. ) ;
#137 = FACE_OUTER_BOUND ( 'NONE', #94, .T. ) ;
#138 = STYLED_ITEM ( 'NONE', ( #77 ), #21 ) ;
#139 = VERTEX_POINT ( 'NONE', #120 ) ;
#140 = DIRECTION ( 'NONE',  ( -1.000000000000000000, 0.0000000000000000000, 0.0000000000000000000 ) ) ;
#141 = EDGE_CURVE ( 'NONE', #104, #49, #79, .T. ) ;
#142 = ADVANCED_FACE ( 'NONE', ( #57 ), #25, .T. ) ;
#143 = DIRECTION ( 'NONE',  ( -0.0000000000000000000, -0.0000000000000000000, -1.000000000000000000 ) ) ;
#144 = DIRECTION ( 'NONE',  ( -1.000000000000000000, -1.224646799147349500E-016, 0.0000000000000000000 ) ) ;
#145 = SURFACE_SIDE_STYLE ('',( #54 ) ) ;
#146 = ORIENTED_EDGE ( 'NONE', *, *, #150, .F. ) ;
#147 = AXIS2_PLACEMENT_3D ( 'NONE', #72, #47, #73 ) ;
#148 = EDGE_LOOP ( 'NONE', ( #12, #118, #151, #13 ) ) ;
#149 = CIRCLE ( 'NONE', #126, 3.500000000000003100 ) ;
#150 = EDGE_CURVE ( 'NONE', #87, #139, #149, .T. ) ;
#151 = ORIENTED_EDGE ( 'NONE', *, *, #136, .T. ) ;
#152 = CIRCLE ( 'NONE', #101, 165.5000000000000000 ) ;
#153 = PRODUCT_DEFINITION_SHAPE ( 'NONE', 'NONE',  #66 ) ;
#154 = ADVANCED_FACE ( 'NONE', ( #91 ), #89, .T. ) ;
#155 = CARTESIAN_POINT ( 'NONE',  ( 0.0000000000000000000, 0.0000000000000000000, 0.0000000000000000000 ) ) ;
#156 = CARTESIAN_POINT ( 'NONE',  ( -162.0000000000000000, 0.0000000000000000000, 0.0000000000000000000 ) ) ;
#157 =( GEOMETRIC_REPRESENTATION_CONTEXT ( 3 ) GLOBAL_UNCERTAINTY_ASSIGNED_CONTEXT ( ( #39 ) ) GLOBAL_UNIT_ASSIGNED_CONTEXT ( ( #7, #99, #22 ) ) REPRESENTATION_CONTEXT ( 'NONE', 'WORKASPACE' ) );
#158 =( LENGTH_UNIT ( ) NAMED_UNIT ( * ) SI_UNIT ( .MILLI., .METRE. ) );
ENDSEC;
END-ISO-10303-21;
