ISO-10303-21;
HEADER;
FILE_DESCRIPTION (( 'STEP AP214' ),
    '1' );
FILE_NAME ('490DFL100-S10.stp',
    '2017-10-11T10:22:03',
    ( '' ),
    ( '' ),
    'SwSTEP 2.0',
    'SolidWorks 2015',
    '' );
FILE_SCHEMA (( 'AUTOMOTIVE_DESIGN' ));
ENDSEC;

DATA;
#1 = DIRECTION ( 'NONE',  ( 0.0000000000000000000, 0.0000000000000000000, 1.000000000000000000 ) ) ;
#2 = APPLICATION_CONTEXT ( 'automotive_design' ) ;
#3 = FACE_BOUND ( 'NONE', #59, .T. ) ;
#4 = AXIS2_PLACEMENT_3D ( 'NONE', #105, #175, #153 ) ;
#5 = EDGE_LOOP ( 'NONE', ( #26, #14, #158, #99 ) ) ;
#6 = DIRECTION ( 'NONE',  ( 0.0000000000000000000, 0.0000000000000000000, 1.000000000000000000 ) ) ;
#7 = EDGE_CURVE ( 'NONE', #21, #90, #127, .T. ) ;
#8 = LINE ( 'NONE', #69, #52 ) ;
#9 = COLOUR_RGB ( '',0.7254901960784313500, 0.4470588235294117300, 0.3686274509803921800 ) ;
#10 = PRESENTATION_STYLE_ASSIGNMENT (( #25 ) ) ;
#11 = ORIENTED_EDGE ( 'NONE', *, *, #77, .T. ) ;
#12 = DIRECTION ( 'NONE',  ( 1.000000000000000000, 0.0000000000000000000, -0.0000000000000000000 ) ) ;
#13 = SURFACE_STYLE_USAGE ( .BOTH. , #33 ) ;
#14 = ORIENTED_EDGE ( 'NONE', *, *, #24, .T. ) ;
#15 = FILL_AREA_STYLE ('',( #197 ) ) ;
#16 = EDGE_CURVE ( 'NONE', #27, #194, #83, .T. ) ;
#17 = UNCERTAINTY_MEASURE_WITH_UNIT (LENGTH_MEASURE( 1.000000000000000100E-005 ), #129, 'distance_accuracy_value', 'NONE');
#18 = ORIENTED_EDGE ( 'NONE', *, *, #195, .T. ) ;
#19 = CARTESIAN_POINT ( 'NONE',  ( -50.79999999999999700, 6.221205739668553700E-015, 0.0000000000000000000 ) ) ;
#20 = ORIENTED_EDGE ( 'NONE', *, *, #100, .F. ) ;
#21 = VERTEX_POINT ( 'NONE', #56 ) ;
#22 = CIRCLE ( 'NONE', #67, 50.79999999999999700 ) ;
#23 = ORIENTED_EDGE ( 'NONE', *, *, #209, .T. ) ;
#24 = EDGE_CURVE ( 'NONE', #70, #115, #84, .T. ) ;
#25 = SURFACE_STYLE_USAGE ( .BOTH. , #28 ) ;
#26 = ORIENTED_EDGE ( 'NONE', *, *, #77, .F. ) ;
#27 = VERTEX_POINT ( 'NONE', #208 ) ;
#28 = SURFACE_SIDE_STYLE ('',( #136 ) ) ;
#29 = PRODUCT ( '490DFL100-S10', '490DFL100-S10', '', ( #97 ) ) ;
#30 = CARTESIAN_POINT ( 'NONE',  ( 60.25000000000000000, 0.0000000000000000000, -2.000000000000000000 ) ) ;
#31 =( NAMED_UNIT ( * ) PLANE_ANGLE_UNIT ( ) SI_UNIT ( $, .RADIAN. ) );
#32 = SHAPE_DEFINITION_REPRESENTATION ( #196, #173 ) ;
#33 = SURFACE_SIDE_STYLE ('',( #139 ) ) ;
#34 = CIRCLE ( 'NONE', #160, 50.79999999999999700 ) ;
#35 = CARTESIAN_POINT ( 'NONE',  ( 60.25000000000000000, 0.0000000000000000000, -2.000000000000000000 ) ) ;
#36 = ORIENTED_EDGE ( 'NONE', *, *, #195, .F. ) ;
#37 = FILL_AREA_STYLE ('',( #121 ) ) ;
#38 = DIRECTION ( 'NONE',  ( 0.0000000000000000000, 0.0000000000000000000, 1.000000000000000000 ) ) ;
#39 = EDGE_LOOP ( 'NONE', ( #78, #131 ) ) ;
#40 = PLANE ( 'NONE',  #61 ) ;
#41 = DIRECTION ( 'NONE',  ( 0.0000000000000000000, 0.0000000000000000000, 1.000000000000000000 ) ) ;
#42 =( LENGTH_UNIT ( ) NAMED_UNIT ( * ) SI_UNIT ( .MILLI., .METRE. ) );
#43 = STYLED_ITEM ( 'NONE', ( #76 ), #173 ) ;
#44 = ORIENTED_EDGE ( 'NONE', *, *, #109, .F. ) ;
#45 =( NAMED_UNIT ( * ) SI_UNIT ( $, .STERADIAN. ) SOLID_ANGLE_UNIT ( ) );
#46 = CARTESIAN_POINT ( 'NONE',  ( 0.0000000000000000000, 0.0000000000000000000, -2.000000000000000000 ) ) ;
#47 = ORIENTED_EDGE ( 'NONE', *, *, #7, .T. ) ;
#48 = CARTESIAN_POINT ( 'NONE',  ( 0.0000000000000000000, 0.0000000000000000000, -2.000000000000000000 ) ) ;
#49 = DIRECTION ( 'NONE',  ( 0.0000000000000000000, 0.0000000000000000000, 1.000000000000000000 ) ) ;
#50 = AXIS2_PLACEMENT_3D ( 'NONE', #128, #80, #214 ) ;
#51 = ORIENTED_EDGE ( 'NONE', *, *, #16, .F. ) ;
#52 = VECTOR ( 'NONE', #123, 1000.000000000000000 ) ;
#53 = DIRECTION ( 'NONE',  ( 1.000000000000000000, 0.0000000000000000000, 0.0000000000000000000 ) ) ;
#54 = ORIENTED_EDGE ( 'NONE', *, *, #181, .T. ) ;
#55 = AXIS2_PLACEMENT_3D ( 'NONE', #176, #6, #202 ) ;
#56 = CARTESIAN_POINT ( 'NONE',  ( 60.25000000000000000, 0.0000000000000000000, 0.0000000000000000000 ) ) ;
#57 = CARTESIAN_POINT ( 'NONE',  ( 0.0000000000000000000, 0.0000000000000000000, 0.0000000000000000000 ) ) ;
#58 = UNCERTAINTY_MEASURE_WITH_UNIT (LENGTH_MEASURE( 1.000000000000000100E-005 ), #73, 'distance_accuracy_value', 'NONE');
#59 = EDGE_LOOP ( 'NONE', ( #154, #130 ) ) ;
#60 = CARTESIAN_POINT ( 'NONE',  ( 0.0000000000000000000, 0.0000000000000000000, 0.0000000000000000000 ) ) ;
#61 = AXIS2_PLACEMENT_3D ( 'NONE', #57, #101, #118 ) ;
#62 =( NAMED_UNIT ( * ) SI_UNIT ( $, .STERADIAN. ) SOLID_ANGLE_UNIT ( ) );
#63 = CARTESIAN_POINT ( 'NONE',  ( 0.0000000000000000000, 0.0000000000000000000, 0.0000000000000000000 ) ) ;
#64 = APPLICATION_PROTOCOL_DEFINITION ( 'draft international standard', 'automotive_design', 1998, #2 ) ;
#65 =( GEOMETRIC_REPRESENTATION_CONTEXT ( 3 ) GLOBAL_UNCERTAINTY_ASSIGNED_CONTEXT ( ( #17 ) ) GLOBAL_UNIT_ASSIGNED_CONTEXT ( ( #129, #95, #45 ) ) REPRESENTATION_CONTEXT ( 'NONE', 'WORKASPACE' ) );
#66 = CIRCLE ( 'NONE', #143, 60.25000000000000000 ) ;
#67 = AXIS2_PLACEMENT_3D ( 'NONE', #116, #71, #152 ) ;
#68 = PRODUCT_RELATED_PRODUCT_CATEGORY ( 'part', '', ( #29 ) ) ;
#69 = CARTESIAN_POINT ( 'NONE',  ( -60.25000000000000000, 7.378496964862802100E-015, -2.000000000000000000 ) ) ;
#70 = VERTEX_POINT ( 'NONE', #159 ) ;
#71 = DIRECTION ( 'NONE',  ( 0.0000000000000000000, 0.0000000000000000000, 1.000000000000000000 ) ) ;
#72 = ORIENTED_EDGE ( 'NONE', *, *, #209, .F. ) ;
#73 =( LENGTH_UNIT ( ) NAMED_UNIT ( * ) SI_UNIT ( .MILLI., .METRE. ) );
#74 = CARTESIAN_POINT ( 'NONE',  ( 0.0000000000000000000, 0.0000000000000000000, -2.000000000000000000 ) ) ;
#75 =( NAMED_UNIT ( * ) SI_UNIT ( $, .STERADIAN. ) SOLID_ANGLE_UNIT ( ) );
#76 = PRESENTATION_STYLE_ASSIGNMENT (( #13 ) ) ;
#77 = EDGE_CURVE ( 'NONE', #70, #90, #8, .T. ) ;
#78 = ORIENTED_EDGE ( 'NONE', *, *, #181, .F. ) ;
#79 = EDGE_CURVE ( 'NONE', #90, #21, #66, .T. ) ;
#80 = DIRECTION ( 'NONE',  ( 0.0000000000000000000, 0.0000000000000000000, 1.000000000000000000 ) ) ;
#81 = CIRCLE ( 'NONE', #85, 50.79999999999999700 ) ;
#82 = EDGE_LOOP ( 'NONE', ( #51, #44, #23, #172 ) ) ;
#83 = LINE ( 'NONE', #211, #165 ) ;
#84 = CIRCLE ( 'NONE', #156, 60.25000000000000000 ) ;
#85 = AXIS2_PLACEMENT_3D ( 'NONE', #48, #91, #163 ) ;
#86 = PRODUCT_DEFINITION_CONTEXT ( 'detailed design', #92, 'design' ) ;
#87 = UNCERTAINTY_MEASURE_WITH_UNIT (LENGTH_MEASURE( 1.000000000000000100E-005 ), #42, 'distance_accuracy_value', 'NONE');
#88 = PRESENTATION_LAYER_ASSIGNMENT (  '', '', ( #43 ) ) ;
#89 =( GEOMETRIC_REPRESENTATION_CONTEXT ( 3 ) GLOBAL_UNCERTAINTY_ASSIGNED_CONTEXT ( ( #58 ) ) GLOBAL_UNIT_ASSIGNED_CONTEXT ( ( #73, #190, #62 ) ) REPRESENTATION_CONTEXT ( 'NONE', 'WORKASPACE' ) );
#90 = VERTEX_POINT ( 'NONE', #134 ) ;
#91 = DIRECTION ( 'NONE',  ( 0.0000000000000000000, 0.0000000000000000000, 1.000000000000000000 ) ) ;
#92 = APPLICATION_CONTEXT ( 'automotive_design' ) ;
#93 = ORIENTED_EDGE ( 'NONE', *, *, #79, .T. ) ;
#94 = AXIS2_PLACEMENT_3D ( 'NONE', #46, #38, #12 ) ;
#95 =( NAMED_UNIT ( * ) PLANE_ANGLE_UNIT ( ) SI_UNIT ( $, .RADIAN. ) );
#96 = ORIENTED_EDGE ( 'NONE', *, *, #109, .T. ) ;
#97 = PRODUCT_CONTEXT ( 'NONE', #2, 'mechanical' ) ;
#98 = MECHANICAL_DESIGN_GEOMETRIC_PRESENTATION_REPRESENTATION (  '', ( #132 ), #89 ) ;
#99 = ORIENTED_EDGE ( 'NONE', *, *, #79, .F. ) ;
#100 = EDGE_CURVE ( 'NONE', #115, #21, #185, .T. ) ;
#101 = DIRECTION ( 'NONE',  ( 0.0000000000000000000, 0.0000000000000000000, 1.000000000000000000 ) ) ;
#102 = MANIFOLD_SOLID_BREP ( 'Aufsatz-Linear austragen1', #104 ) ;
#103 = CARTESIAN_POINT ( 'NONE',  ( 0.0000000000000000000, 0.0000000000000000000, -2.000000000000000000 ) ) ;
#104 = CLOSED_SHELL ( 'NONE', ( #174, #200, #177, #140, #111, #205 ) ) ;
#105 = CARTESIAN_POINT ( 'NONE',  ( 0.0000000000000000000, 0.0000000000000000000, 0.0000000000000000000 ) ) ;
#106 = CARTESIAN_POINT ( 'NONE',  ( 0.0000000000000000000, 0.0000000000000000000, -2.000000000000000000 ) ) ;
#107 = APPLICATION_PROTOCOL_DEFINITION ( 'draft international standard', 'automotive_design', 1998, #92 ) ;
#108 = CARTESIAN_POINT ( 'NONE',  ( 0.0000000000000000000, 0.0000000000000000000, -2.000000000000000000 ) ) ;
#109 = EDGE_CURVE ( 'NONE', #207, #27, #81, .T. ) ;
#110 = CARTESIAN_POINT ( 'NONE',  ( 50.79999999999999700, 0.0000000000000000000, -2.000000000000000000 ) ) ;
#111 = ADVANCED_FACE ( 'NONE', ( #3, #135 ), #40, .T. ) ;
#112 = CARTESIAN_POINT ( 'NONE',  ( 50.79999999999999700, 0.0000000000000000000, -2.000000000000000000 ) ) ;
#113 = DIRECTION ( 'NONE',  ( 1.000000000000000000, 0.0000000000000000000, 0.0000000000000000000 ) ) ;
#114 = MECHANICAL_DESIGN_GEOMETRIC_PRESENTATION_REPRESENTATION (  '', ( #43 ), #65 ) ;
#115 = VERTEX_POINT ( 'NONE', #35 ) ;
#116 = CARTESIAN_POINT ( 'NONE',  ( 0.0000000000000000000, 0.0000000000000000000, 0.0000000000000000000 ) ) ;
#117 = DIRECTION ( 'NONE',  ( 0.0000000000000000000, 0.0000000000000000000, 1.000000000000000000 ) ) ;
#118 = DIRECTION ( 'NONE',  ( 1.000000000000000000, 0.0000000000000000000, -0.0000000000000000000 ) ) ;
#119 = EDGE_CURVE ( 'NONE', #194, #178, #22, .T. ) ;
#120 = ORIENTED_EDGE ( 'NONE', *, *, #119, .T. ) ;
#121 = FILL_AREA_STYLE_COLOUR ( '', #9 ) ;
#122 = CARTESIAN_POINT ( 'NONE',  ( 0.0000000000000000000, 0.0000000000000000000, 0.0000000000000000000 ) ) ;
#123 = DIRECTION ( 'NONE',  ( 0.0000000000000000000, 0.0000000000000000000, 1.000000000000000000 ) ) ;
#124 = PRESENTATION_LAYER_ASSIGNMENT (  '', '', ( #132 ) ) ;
#125 = CIRCLE ( 'NONE', #50, 50.79999999999999700 ) ;
#126 = DIRECTION ( 'NONE',  ( 1.000000000000000000, 0.0000000000000000000, 0.0000000000000000000 ) ) ;
#127 = CIRCLE ( 'NONE', #191, 60.25000000000000000 ) ;
#128 = CARTESIAN_POINT ( 'NONE',  ( 0.0000000000000000000, 0.0000000000000000000, -2.000000000000000000 ) ) ;
#129 =( LENGTH_UNIT ( ) NAMED_UNIT ( * ) SI_UNIT ( .MILLI., .METRE. ) );
#130 = ORIENTED_EDGE ( 'NONE', *, *, #119, .F. ) ;
#131 = ORIENTED_EDGE ( 'NONE', *, *, #24, .F. ) ;
#132 = STYLED_ITEM ( 'NONE', ( #10 ), #102 ) ;
#133 = EDGE_LOOP ( 'NONE', ( #54, #11, #201, #20 ) ) ;
#134 = CARTESIAN_POINT ( 'NONE',  ( -60.25000000000000000, 7.378496964862802100E-015, 0.0000000000000000000 ) ) ;
#135 = FACE_OUTER_BOUND ( 'NONE', #162, .T. ) ;
#136 = SURFACE_STYLE_FILL_AREA ( #37 ) ;
#137 = DIRECTION ( 'NONE',  ( 1.000000000000000000, 0.0000000000000000000, 0.0000000000000000000 ) ) ;
#138 = EDGE_CURVE ( 'NONE', #178, #194, #34, .T. ) ;
#139 = SURFACE_STYLE_FILL_AREA ( #15 ) ;
#140 = ADVANCED_FACE ( 'NONE', ( #198, #210 ), #212, .F. ) ;
#141 = AXIS2_PLACEMENT_3D ( 'NONE', #74, #49, #189 ) ;
#142 = VECTOR ( 'NONE', #199, 1000.000000000000000 ) ;
#143 = AXIS2_PLACEMENT_3D ( 'NONE', #60, #41, #126 ) ;
#144 = CYLINDRICAL_SURFACE ( 'NONE', #55, 50.79999999999999700 ) ;
#145 = AXIS2_PLACEMENT_3D ( 'NONE', #108, #193, #137 ) ;
#146 = LINE ( 'NONE', #110, #142 ) ;
#147 = DIRECTION ( 'NONE',  ( 0.0000000000000000000, 0.0000000000000000000, 1.000000000000000000 ) ) ;
#148 = PRODUCT_DEFINITION ( 'UNKNOWN', '', #204, #86 ) ;
#149 = CYLINDRICAL_SURFACE ( 'NONE', #188, 60.25000000000000000 ) ;
#150 = CARTESIAN_POINT ( 'NONE',  ( 0.0000000000000000000, 0.0000000000000000000, -2.000000000000000000 ) ) ;
#151 = VECTOR ( 'NONE', #147, 1000.000000000000000 ) ;
#152 = DIRECTION ( 'NONE',  ( 1.000000000000000000, 0.0000000000000000000, 0.0000000000000000000 ) ) ;
#153 = DIRECTION ( 'NONE',  ( 1.000000000000000000, 0.0000000000000000000, 0.0000000000000000000 ) ) ;
#154 = ORIENTED_EDGE ( 'NONE', *, *, #138, .F. ) ;
#155 = DIRECTION ( 'NONE',  ( 0.0000000000000000000, 0.0000000000000000000, 1.000000000000000000 ) ) ;
#156 = AXIS2_PLACEMENT_3D ( 'NONE', #150, #183, #167 ) ;
#157 =( GEOMETRIC_REPRESENTATION_CONTEXT ( 3 ) GLOBAL_UNCERTAINTY_ASSIGNED_CONTEXT ( ( #87 ) ) GLOBAL_UNIT_ASSIGNED_CONTEXT ( ( #42, #31, #75 ) ) REPRESENTATION_CONTEXT ( 'NONE', 'WORKASPACE' ) );
#158 = ORIENTED_EDGE ( 'NONE', *, *, #100, .T. ) ;
#159 = CARTESIAN_POINT ( 'NONE',  ( -60.25000000000000000, 7.378496964862802100E-015, -2.000000000000000000 ) ) ;
#160 = AXIS2_PLACEMENT_3D ( 'NONE', #122, #186, #113 ) ;
#161 = FACE_OUTER_BOUND ( 'NONE', #5, .T. ) ;
#162 = EDGE_LOOP ( 'NONE', ( #47, #93 ) ) ;
#163 = DIRECTION ( 'NONE',  ( 1.000000000000000000, 0.0000000000000000000, 0.0000000000000000000 ) ) ;
#164 = DIRECTION ( 'NONE',  ( 1.000000000000000000, 0.0000000000000000000, 0.0000000000000000000 ) ) ;
#165 = VECTOR ( 'NONE', #166, 1000.000000000000000 ) ;
#166 = DIRECTION ( 'NONE',  ( 0.0000000000000000000, 0.0000000000000000000, 1.000000000000000000 ) ) ;
#167 = DIRECTION ( 'NONE',  ( 1.000000000000000000, 0.0000000000000000000, 0.0000000000000000000 ) ) ;
#168 = EDGE_LOOP ( 'NONE', ( #96, #18 ) ) ;
#169 = COLOUR_RGB ( '',0.7254901960784313500, 0.4470588235294117300, 0.3686274509803921800 ) ;
#170 = AXIS2_PLACEMENT_3D ( 'NONE', #103, #1, #179 ) ;
#171 = CARTESIAN_POINT ( 'NONE',  ( 50.79999999999999700, 0.0000000000000000000, 0.0000000000000000000 ) ) ;
#172 = ORIENTED_EDGE ( 'NONE', *, *, #138, .T. ) ;
#173 = ADVANCED_BREP_SHAPE_REPRESENTATION ( '490DFL100-S10', ( #102, #4 ), #157 ) ;
#174 = ADVANCED_FACE ( 'NONE', ( #203 ), #192, .F. ) ;
#175 = DIRECTION ( 'NONE',  ( 0.0000000000000000000, 0.0000000000000000000, 1.000000000000000000 ) ) ;
#176 = CARTESIAN_POINT ( 'NONE',  ( 0.0000000000000000000, 0.0000000000000000000, -2.000000000000000000 ) ) ;
#177 = ADVANCED_FACE ( 'NONE', ( #161 ), #180, .T. ) ;
#178 = VERTEX_POINT ( 'NONE', #171 ) ;
#179 = DIRECTION ( 'NONE',  ( 1.000000000000000000, 0.0000000000000000000, 0.0000000000000000000 ) ) ;
#180 = CYLINDRICAL_SURFACE ( 'NONE', #141, 60.25000000000000000 ) ;
#181 = EDGE_CURVE ( 'NONE', #115, #70, #213, .T. ) ;
#182 = ORIENTED_EDGE ( 'NONE', *, *, #16, .T. ) ;
#183 = DIRECTION ( 'NONE',  ( 0.0000000000000000000, 0.0000000000000000000, 1.000000000000000000 ) ) ;
#184 = FACE_OUTER_BOUND ( 'NONE', #133, .T. ) ;
#185 = LINE ( 'NONE', #30, #151 ) ;
#186 = DIRECTION ( 'NONE',  ( 0.0000000000000000000, 0.0000000000000000000, 1.000000000000000000 ) ) ;
#187 = EDGE_LOOP ( 'NONE', ( #36, #182, #120, #72 ) ) ;
#188 = AXIS2_PLACEMENT_3D ( 'NONE', #106, #155, #53 ) ;
#189 = DIRECTION ( 'NONE',  ( 1.000000000000000000, 0.0000000000000000000, 0.0000000000000000000 ) ) ;
#190 =( NAMED_UNIT ( * ) PLANE_ANGLE_UNIT ( ) SI_UNIT ( $, .RADIAN. ) );
#191 = AXIS2_PLACEMENT_3D ( 'NONE', #63, #117, #164 ) ;
#192 = CYLINDRICAL_SURFACE ( 'NONE', #170, 50.79999999999999700 ) ;
#193 = DIRECTION ( 'NONE',  ( 0.0000000000000000000, 0.0000000000000000000, 1.000000000000000000 ) ) ;
#194 = VERTEX_POINT ( 'NONE', #19 ) ;
#195 = EDGE_CURVE ( 'NONE', #27, #207, #125, .T. ) ;
#196 = PRODUCT_DEFINITION_SHAPE ( 'NONE', 'NONE',  #148 ) ;
#197 = FILL_AREA_STYLE_COLOUR ( '', #169 ) ;
#198 = FACE_BOUND ( 'NONE', #168, .T. ) ;
#199 = DIRECTION ( 'NONE',  ( 0.0000000000000000000, 0.0000000000000000000, 1.000000000000000000 ) ) ;
#200 = ADVANCED_FACE ( 'NONE', ( #184 ), #149, .T. ) ;
#201 = ORIENTED_EDGE ( 'NONE', *, *, #7, .F. ) ;
#202 = DIRECTION ( 'NONE',  ( 1.000000000000000000, 0.0000000000000000000, 0.0000000000000000000 ) ) ;
#203 = FACE_OUTER_BOUND ( 'NONE', #187, .T. ) ;
#204 = PRODUCT_DEFINITION_FORMATION_WITH_SPECIFIED_SOURCE ( 'ANY', '', #29, .NOT_KNOWN. ) ;
#205 = ADVANCED_FACE ( 'NONE', ( #206 ), #144, .F. ) ;
#206 = FACE_OUTER_BOUND ( 'NONE', #82, .T. ) ;
#207 = VERTEX_POINT ( 'NONE', #112 ) ;
#208 = CARTESIAN_POINT ( 'NONE',  ( -50.79999999999999700, 6.221205739668553700E-015, -2.000000000000000000 ) ) ;
#209 = EDGE_CURVE ( 'NONE', #207, #178, #146, .T. ) ;
#210 = FACE_OUTER_BOUND ( 'NONE', #39, .T. ) ;
#211 = CARTESIAN_POINT ( 'NONE',  ( -50.79999999999999700, 6.221205739668553700E-015, -2.000000000000000000 ) ) ;
#212 = PLANE ( 'NONE',  #94 ) ;
#213 = CIRCLE ( 'NONE', #145, 60.25000000000000000 ) ;
#214 = DIRECTION ( 'NONE',  ( 1.000000000000000000, 0.0000000000000000000, 0.0000000000000000000 ) ) ;
ENDSEC;
END-ISO-10303-21;
