ISO-10303-21;
HEADER;
FILE_DESCRIPTION (( 'STEP AP214' ),
    '1' );
FILE_NAME ('106DOR050-S1.step',
    '2017-07-06T09:25:48',
    ( 'install' ),
    ( '' ),
    'SwSTEP 2.0',
    'SolidWorks 2015',
    '' );
FILE_SCHEMA (( 'AUTOMOTIVE_DESIGN' ));
ENDSEC;

DATA;
#1 = FACE_OUTER_BOUND ( 'NONE', #102, .T. ) ;
#2 = STYLED_ITEM ( 'NONE', ( #145 ), #38 ) ;
#3 = CARTESIAN_POINT ( 'NONE',  ( 0.0000000000000000000, 0.0000000000000000000, 0.0000000000000000000 ) ) ;
#4 = ADVANCED_FACE ( 'NONE', ( #151 ), #139, .T. ) ;
#5 = COLOUR_RGB ( '',0.3843137254901960500, 0.3843137254901960500, 0.3843137254901960500 ) ;
#6 = DIRECTION ( 'NONE',  ( 1.000000000000000000, 0.0000000000000000000, 0.0000000000000000000 ) ) ;
#7 =( NAMED_UNIT ( * ) PLANE_ANGLE_UNIT ( ) SI_UNIT ( $, .RADIAN. ) );
#8 = CARTESIAN_POINT ( 'NONE',  ( 26.67000000000000200, 0.0000000000000000000, -3.061616997868381700E-016 ) ) ;
#9 = MECHANICAL_DESIGN_GEOMETRIC_PRESENTATION_REPRESENTATION (  '', ( #149 ), #18 ) ;
#10 = PRESENTATION_LAYER_ASSIGNMENT (  '', '', ( #2 ) ) ;
#11 = ORIENTED_EDGE ( 'NONE', *, *, #69, .T. ) ;
#12 = ORIENTED_EDGE ( 'NONE', *, *, #23, .F. ) ;
#13 = DIRECTION ( 'NONE',  ( -0.0000000000000000000, -0.0000000000000000000, 1.000000000000000000 ) ) ;
#14 = DIRECTION ( 'NONE',  ( -0.0000000000000000000, -0.0000000000000000000, 1.000000000000000000 ) ) ;
#15 = CARTESIAN_POINT ( 'NONE',  ( 0.0000000000000000000, 0.0000000000000000000, -3.061616997868381700E-016 ) ) ;
#16 = DIRECTION ( 'NONE',  ( 0.0000000000000000000, 0.0000000000000000000, 1.000000000000000000 ) ) ;
#17 = DIRECTION ( 'NONE',  ( -0.0000000000000000000, -0.0000000000000000000, 1.000000000000000000 ) ) ;
#18 =( GEOMETRIC_REPRESENTATION_CONTEXT ( 3 ) GLOBAL_UNCERTAINTY_ASSIGNED_CONTEXT ( ( #73 ) ) GLOBAL_UNIT_ASSIGNED_CONTEXT ( ( #93, #82, #109 ) ) REPRESENTATION_CONTEXT ( 'NONE', 'WORKASPACE' ) );
#19 = MECHANICAL_DESIGN_GEOMETRIC_PRESENTATION_REPRESENTATION (  '', ( #2 ), #26 ) ;
#20 = PRODUCT_DEFINITION_SHAPE ( 'NONE', 'NONE',  #67 ) ;
#21 = CARTESIAN_POINT ( 'NONE',  ( 0.0000000000000000000, 0.0000000000000000000, -3.061616997868381700E-016 ) ) ;
#22 = CARTESIAN_POINT ( 'NONE',  ( 31.67000000000000500, 0.0000000000000000000, 0.0000000000000000000 ) ) ;
#23 = EDGE_CURVE ( 'NONE', #90, #68, #40, .T. ) ;
#24 = MANIFOLD_SOLID_BREP ( 'Rotation1', #63 ) ;
#25 = AXIS2_PLACEMENT_3D ( 'NONE', #15, #70, #146 ) ;
#26 =( GEOMETRIC_REPRESENTATION_CONTEXT ( 3 ) GLOBAL_UNCERTAINTY_ASSIGNED_CONTEXT ( ( #123 ) ) GLOBAL_UNIT_ASSIGNED_CONTEXT ( ( #27, #7, #157 ) ) REPRESENTATION_CONTEXT ( 'NONE', 'WORKASPACE' ) );
#27 =( LENGTH_UNIT ( ) NAMED_UNIT ( * ) SI_UNIT ( .MILLI., .METRE. ) );
#28 = DIRECTION ( 'NONE',  ( 1.000000000000000000, 0.0000000000000000000, 0.0000000000000000000 ) ) ;
#29 = SHAPE_DEFINITION_REPRESENTATION ( #20, #38 ) ;
#30 = EDGE_CURVE ( 'NONE', #94, #50, #137, .T. ) ;
#31 = CARTESIAN_POINT ( 'NONE',  ( 0.0000000000000000000, 0.0000000000000000000, 0.0000000000000000000 ) ) ;
#32 = CIRCLE ( 'NONE', #58, 2.500000000000002200 ) ;
#33 = DIRECTION ( 'NONE',  ( -1.000000000000000000, 1.224646799147352500E-016, 0.0000000000000000000 ) ) ;
#34 = DIRECTION ( 'NONE',  ( 0.0000000000000000000, 0.0000000000000000000, -1.000000000000000000 ) ) ;
#35 = AXIS2_PLACEMENT_3D ( 'NONE', #72, #36, #54 ) ;
#36 = DIRECTION ( 'NONE',  ( 0.0000000000000000000, -1.000000000000000000, 0.0000000000000000000 ) ) ;
#37 = ADVANCED_FACE ( 'NONE', ( #47 ), #103, .T. ) ;
#38 = ADVANCED_BREP_SHAPE_REPRESENTATION ( '106DOR050-S1', ( #24, #61 ), #107 ) ;
#39 = UNCERTAINTY_MEASURE_WITH_UNIT (LENGTH_MEASURE( 1.000000000000000100E-005 ), #122, 'distance_accuracy_value', 'NONE');
#40 = CIRCLE ( 'NONE', #132, 31.67000000000000500 ) ;
#41 = ORIENTED_EDGE ( 'NONE', *, *, #44, .T. ) ;
#42 = TOROIDAL_SURFACE ( 'NONE', #116, 29.17000000000000200, 2.499999999999998700 ) ;
#43 = CARTESIAN_POINT ( 'NONE',  ( 0.0000000000000000000, 0.0000000000000000000, 0.0000000000000000000 ) ) ;
#44 = EDGE_CURVE ( 'NONE', #94, #90, #144, .T. ) ;
#45 = SURFACE_SIDE_STYLE ('',( #104 ) ) ;
#46 = FILL_AREA_STYLE ('',( #92 ) ) ;
#47 = FACE_OUTER_BOUND ( 'NONE', #86, .T. ) ;
#48 = CARTESIAN_POINT ( 'NONE',  ( 0.0000000000000000000, 0.0000000000000000000, 0.0000000000000000000 ) ) ;
#49 = CARTESIAN_POINT ( 'NONE',  ( 0.0000000000000000000, 0.0000000000000000000, 0.0000000000000000000 ) ) ;
#50 = VERTEX_POINT ( 'NONE', #133 ) ;
#51 = CARTESIAN_POINT ( 'NONE',  ( 29.17000000000000200, 0.0000000000000000000, 0.0000000000000000000 ) ) ;
#52 = AXIS2_PLACEMENT_3D ( 'NONE', #49, #80, #28 ) ;
#53 = PRODUCT_CONTEXT ( 'NONE', #155, 'mechanical' ) ;
#54 = DIRECTION ( 'NONE',  ( 0.0000000000000000000, 0.0000000000000000000, -1.000000000000000000 ) ) ;
#55 =( NAMED_UNIT ( * ) PLANE_ANGLE_UNIT ( ) SI_UNIT ( $, .RADIAN. ) );
#56 = DIRECTION ( 'NONE',  ( -1.000000000000000000, 1.224646799147352500E-016, 0.0000000000000000000 ) ) ;
#57 = EDGE_CURVE ( 'NONE', #50, #68, #32, .T. ) ;
#58 = AXIS2_PLACEMENT_3D ( 'NONE', #88, #87, #56 ) ;
#59 = DIRECTION ( 'NONE',  ( 1.000000000000000000, 0.0000000000000000000, 0.0000000000000000000 ) ) ;
#60 = DIRECTION ( 'NONE',  ( -0.0000000000000000000, -0.0000000000000000000, 1.000000000000000000 ) ) ;
#61 = AXIS2_PLACEMENT_3D ( 'NONE', #48, #16, #112 ) ;
#62 = SURFACE_STYLE_USAGE ( .BOTH. , #108 ) ;
#63 = CLOSED_SHELL ( 'NONE', ( #117, #143, #4, #37 ) ) ;
#64 = EDGE_CURVE ( 'NONE', #50, #94, #97, .T. ) ;
#65 = ORIENTED_EDGE ( 'NONE', *, *, #120, .F. ) ;
#66 = AXIS2_PLACEMENT_3D ( 'NONE', #21, #125, #115 ) ;
#67 = PRODUCT_DEFINITION ( 'UNKNOWN', '', #76, #150 ) ;
#68 = VERTEX_POINT ( 'NONE', #134 ) ;
#69 = EDGE_CURVE ( 'NONE', #68, #50, #124, .T. ) ;
#70 = DIRECTION ( 'NONE',  ( -0.0000000000000000000, -0.0000000000000000000, 1.000000000000000000 ) ) ;
#71 = PRESENTATION_STYLE_ASSIGNMENT (( #62 ) ) ;
#72 = CARTESIAN_POINT ( 'NONE',  ( 29.17000000000000200, 0.0000000000000000000, 0.0000000000000000000 ) ) ;
#73 = UNCERTAINTY_MEASURE_WITH_UNIT (LENGTH_MEASURE( 1.000000000000000100E-005 ), #93, 'distance_accuracy_value', 'NONE');
#74 = AXIS2_PLACEMENT_3D ( 'NONE', #77, #75, #33 ) ;
#75 = DIRECTION ( 'NONE',  ( 1.224646799147353200E-016, 1.000000000000000000, 0.0000000000000000000 ) ) ;
#76 = PRODUCT_DEFINITION_FORMATION_WITH_SPECIFIED_SOURCE ( 'ANY', '', #105, .NOT_KNOWN. ) ;
#77 = CARTESIAN_POINT ( 'NONE',  ( -29.17000000000000200, 3.572294713112828800E-015, 0.0000000000000000000 ) ) ;
#78 = DIRECTION ( 'NONE',  ( 1.000000000000000000, 0.0000000000000000000, 0.0000000000000000000 ) ) ;
#79 =( NAMED_UNIT ( * ) SI_UNIT ( $, .STERADIAN. ) SOLID_ANGLE_UNIT ( ) );
#80 = DIRECTION ( 'NONE',  ( -0.0000000000000000000, -0.0000000000000000000, 1.000000000000000000 ) ) ;
#81 = AXIS2_PLACEMENT_3D ( 'NONE', #31, #153, #78 ) ;
#82 =( NAMED_UNIT ( * ) PLANE_ANGLE_UNIT ( ) SI_UNIT ( $, .RADIAN. ) );
#83 = PRODUCT_RELATED_PRODUCT_CATEGORY ( 'part', '', ( #105 ) ) ;
#84 = EDGE_LOOP ( 'NONE', ( #127, #91, #11, #140 ) ) ;
#85 = SURFACE_STYLE_USAGE ( .BOTH. , #45 ) ;
#86 = EDGE_LOOP ( 'NONE', ( #65, #154, #101, #41 ) ) ;
#87 = DIRECTION ( 'NONE',  ( 1.224646799147353200E-016, 1.000000000000000000, 0.0000000000000000000 ) ) ;
#88 = CARTESIAN_POINT ( 'NONE',  ( -29.17000000000000200, 3.572294713112828800E-015, 0.0000000000000000000 ) ) ;
#89 = AXIS2_PLACEMENT_3D ( 'NONE', #3, #14, #106 ) ;
#90 = VERTEX_POINT ( 'NONE', #22 ) ;
#91 = ORIENTED_EDGE ( 'NONE', *, *, #23, .T. ) ;
#92 = FILL_AREA_STYLE_COLOUR ( '', #5 ) ;
#93 =( LENGTH_UNIT ( ) NAMED_UNIT ( * ) SI_UNIT ( .MILLI., .METRE. ) );
#94 = VERTEX_POINT ( 'NONE', #8 ) ;
#95 = ORIENTED_EDGE ( 'NONE', *, *, #120, .T. ) ;
#96 = ORIENTED_EDGE ( 'NONE', *, *, #57, .T. ) ;
#97 = CIRCLE ( 'NONE', #66, 26.67000000000000200 ) ;
#98 = TOROIDAL_SURFACE ( 'NONE', #89, 29.17000000000000200, 2.499999999999998700 ) ;
#99 = AXIS2_PLACEMENT_3D ( 'NONE', #51, #148, #34 ) ;
#100 = FILL_AREA_STYLE ('',( #138 ) ) ;
#101 = ORIENTED_EDGE ( 'NONE', *, *, #64, .T. ) ;
#102 = EDGE_LOOP ( 'NONE', ( #118, #95, #136, #121 ) ) ;
#103 = TOROIDAL_SURFACE ( 'NONE', #52, 29.17000000000000200, 2.499999999999998700 ) ;
#104 = SURFACE_STYLE_FILL_AREA ( #100 ) ;
#105 = PRODUCT ( '106DOR050-S1', '106DOR050-S1', '', ( #53 ) ) ;
#106 = DIRECTION ( 'NONE',  ( 1.000000000000000000, 0.0000000000000000000, 0.0000000000000000000 ) ) ;
#107 =( GEOMETRIC_REPRESENTATION_CONTEXT ( 3 ) GLOBAL_UNCERTAINTY_ASSIGNED_CONTEXT ( ( #39 ) ) GLOBAL_UNIT_ASSIGNED_CONTEXT ( ( #122, #55, #79 ) ) REPRESENTATION_CONTEXT ( 'NONE', 'WORKASPACE' ) );
#108 = SURFACE_SIDE_STYLE ('',( #131 ) ) ;
#109 =( NAMED_UNIT ( * ) SI_UNIT ( $, .STERADIAN. ) SOLID_ANGLE_UNIT ( ) );
#110 = APPLICATION_PROTOCOL_DEFINITION ( 'draft international standard', 'automotive_design', 1998, #155 ) ;
#111 = APPLICATION_PROTOCOL_DEFINITION ( 'draft international standard', 'automotive_design', 1998, #130 ) ;
#112 = DIRECTION ( 'NONE',  ( 1.000000000000000000, 0.0000000000000000000, 0.0000000000000000000 ) ) ;
#113 = EDGE_LOOP ( 'NONE', ( #12, #147, #141, #96 ) ) ;
#114 = FACE_OUTER_BOUND ( 'NONE', #84, .T. ) ;
#115 = DIRECTION ( 'NONE',  ( 1.000000000000000000, 0.0000000000000000000, 0.0000000000000000000 ) ) ;
#116 = AXIS2_PLACEMENT_3D ( 'NONE', #129, #17, #6 ) ;
#117 = ADVANCED_FACE ( 'NONE', ( #1 ), #98, .T. ) ;
#118 = ORIENTED_EDGE ( 'NONE', *, *, #69, .F. ) ;
#119 = CIRCLE ( 'NONE', #99, 2.499999999999998700 ) ;
#120 = EDGE_CURVE ( 'NONE', #68, #90, #135, .T. ) ;
#121 = ORIENTED_EDGE ( 'NONE', *, *, #64, .F. ) ;
#122 =( LENGTH_UNIT ( ) NAMED_UNIT ( * ) SI_UNIT ( .MILLI., .METRE. ) );
#123 = UNCERTAINTY_MEASURE_WITH_UNIT (LENGTH_MEASURE( 1.000000000000000100E-005 ), #27, 'distance_accuracy_value', 'NONE');
#124 = CIRCLE ( 'NONE', #74, 2.500000000000002200 ) ;
#125 = DIRECTION ( 'NONE',  ( -0.0000000000000000000, -0.0000000000000000000, 1.000000000000000000 ) ) ;
#126 = EDGE_CURVE ( 'NONE', #90, #94, #119, .T. ) ;
#127 = ORIENTED_EDGE ( 'NONE', *, *, #126, .F. ) ;
#128 = CARTESIAN_POINT ( 'NONE',  ( 0.0000000000000000000, 0.0000000000000000000, 0.0000000000000000000 ) ) ;
#129 = CARTESIAN_POINT ( 'NONE',  ( 0.0000000000000000000, 0.0000000000000000000, 0.0000000000000000000 ) ) ;
#130 = APPLICATION_CONTEXT ( 'automotive_design' ) ;
#131 = SURFACE_STYLE_FILL_AREA ( #46 ) ;
#132 = AXIS2_PLACEMENT_3D ( 'NONE', #43, #60, #158 ) ;
#133 = CARTESIAN_POINT ( 'NONE',  ( -26.67000000000000200, 3.266133013325990600E-015, -3.061616997868381700E-016 ) ) ;
#134 = CARTESIAN_POINT ( 'NONE',  ( -31.67000000000000500, 3.878456412899667500E-015, 0.0000000000000000000 ) ) ;
#135 = CIRCLE ( 'NONE', #81, 31.67000000000000500 ) ;
#136 = ORIENTED_EDGE ( 'NONE', *, *, #126, .T. ) ;
#137 = CIRCLE ( 'NONE', #25, 26.67000000000000200 ) ;
#138 = FILL_AREA_STYLE_COLOUR ( '', #152 ) ;
#139 = TOROIDAL_SURFACE ( 'NONE', #142, 29.17000000000000200, 2.499999999999998700 ) ;
#140 = ORIENTED_EDGE ( 'NONE', *, *, #30, .F. ) ;
#141 = ORIENTED_EDGE ( 'NONE', *, *, #30, .T. ) ;
#142 = AXIS2_PLACEMENT_3D ( 'NONE', #128, #13, #59 ) ;
#143 = ADVANCED_FACE ( 'NONE', ( #114 ), #42, .T. ) ;
#144 = CIRCLE ( 'NONE', #35, 2.499999999999998700 ) ;
#145 = PRESENTATION_STYLE_ASSIGNMENT (( #85 ) ) ;
#146 = DIRECTION ( 'NONE',  ( 1.000000000000000000, 0.0000000000000000000, 0.0000000000000000000 ) ) ;
#147 = ORIENTED_EDGE ( 'NONE', *, *, #44, .F. ) ;
#148 = DIRECTION ( 'NONE',  ( 0.0000000000000000000, -1.000000000000000000, 0.0000000000000000000 ) ) ;
#149 = STYLED_ITEM ( 'NONE', ( #71 ), #24 ) ;
#150 = PRODUCT_DEFINITION_CONTEXT ( 'detailed design', #130, 'design' ) ;
#151 = FACE_OUTER_BOUND ( 'NONE', #113, .T. ) ;
#152 = COLOUR_RGB ( '',0.3843137254901960500, 0.3843137254901960500, 0.3843137254901960500 ) ;
#153 = DIRECTION ( 'NONE',  ( -0.0000000000000000000, -0.0000000000000000000, 1.000000000000000000 ) ) ;
#154 = ORIENTED_EDGE ( 'NONE', *, *, #57, .F. ) ;
#155 = APPLICATION_CONTEXT ( 'automotive_design' ) ;
#156 = PRESENTATION_LAYER_ASSIGNMENT (  '', '', ( #149 ) ) ;
#157 =( NAMED_UNIT ( * ) SI_UNIT ( $, .STERADIAN. ) SOLID_ANGLE_UNIT ( ) );
#158 = DIRECTION ( 'NONE',  ( 1.000000000000000000, 0.0000000000000000000, 0.0000000000000000000 ) ) ;
ENDSEC;
END-ISO-10303-21;
